  0
SECTION
  2
HEADER
  9
$ACADVER
  1
AC1024
  9
$ACADMAINTVER
 70
     6
  9
$DWGCODEPAGE
  3
ANSI_1252
  9
$INSBASE
 10
0.0
 20
0.0
 30
0.0
  9
$EXTMIN
 10
1.000000000000000E+20
 20
1.000000000000000E+20
 30
1.000000000000000E+20
  9
$EXTMAX
 10
-1.000000000000000E+20
 20
-1.000000000000000E+20
 30
-1.000000000000000E+20
  9
$LIMMIN
 10
0.0
 20
0.0
  9
$LIMMAX
 10
12.0
 20
9.0
  9
$ORTHOMODE
 70
     0
  9
$REGENMODE
 70
     1
  9
$FILLMODE
 70
     1
  9
$QTEXTMODE
 70
     0
  9
$MIRRTEXT
 70
     1
  9
$LTSCALE
 40
1.0
  9
$ATTMODE
 70
     1
  9
$TEXTSIZE
 40
0.2
  9
$TRACEWID
 40
0.05
  9
$TEXTSTYLE
  7
Standard
  9
$CLAYER
  8
0
  9
$CELTYPE
  6
ByLayer
  9
$CECOLOR
 62
   256
  9
$CELTSCALE
 40
1.0
  9
$DISPSILH
 70
     0
  9
$DIMSCALE
 40
1.0
  9
$DIMASZ
 40
0.18
  9
$DIMEXO
 40
0.0625
  9
$DIMDLI
 40
0.38
  9
$DIMRND
 40
0.0
  9
$DIMDLE
 40
0.0
  9
$DIMEXE
 40
0.18
  9
$DIMTP
 40
0.0
  9
$DIMTM
 40
0.0
  9
$DIMTXT
 40
0.18
  9
$DIMCEN
 40
0.09
  9
$DIMTSZ
 40
0.0
  9
$DIMTOL
 70
     0
  9
$DIMLIM
 70
     0
  9
$DIMTIH
 70
     1
  9
$DIMTOH
 70
     1
  9
$DIMSE1
 70
     0
  9
$DIMSE2
 70
     0
  9
$DIMTAD
 70
     0
  9
$DIMZIN
 70
     0
  9
$DIMBLK
  1

  9
$DIMASO
 70
     1
  9
$DIMSHO
 70
     1
  9
$DIMPOST
  1

  9
$DIMAPOST
  1

  9
$DIMALT
 70
     0
  9
$DIMALTD
 70
     2
  9
$DIMALTF
 40
25.4
  9
$DIMLFAC
 40
1.0
  9
$DIMTOFL
 70
     0
  9
$DIMTVP
 40
0.0
  9
$DIMTIX
 70
     0
  9
$DIMSOXD
 70
     0
  9
$DIMSAH
 70
     0
  9
$DIMBLK1
  1

  9
$DIMBLK2
  1

  9
$DIMSTYLE
  2
Standard
  9
$DIMCLRD
 70
     0
  9
$DIMCLRE
 70
     0
  9
$DIMCLRT
 70
     0
  9
$DIMTFAC
 40
1.0
  9
$DIMGAP
 40
0.09
  9
$DIMJUST
 70
     0
  9
$DIMSD1
 70
     0
  9
$DIMSD2
 70
     0
  9
$DIMTOLJ
 70
     1
  9
$DIMTZIN
 70
     0
  9
$DIMALTZ
 70
     0
  9
$DIMALTTZ
 70
     0
  9
$DIMUPT
 70
     0
  9
$DIMDEC
 70
     4
  9
$DIMTDEC
 70
     4
  9
$DIMALTU
 70
     2
  9
$DIMALTTD
 70
     2
  9
$DIMTXSTY
  7
Standard
  9
$DIMAUNIT
 70
     0
  9
$DIMADEC
 70
     0
  9
$DIMALTRND
 40
0.0
  9
$DIMAZIN
 70
     0
  9
$DIMDSEP
 70
    46
  9
$DIMATFIT
 70
     3
  9
$DIMFRAC
 70
     0
  9
$DIMLDRBLK
  1

  9
$DIMLUNIT
 70
     2
  9
$DIMLWD
 70
    -2
  9
$DIMLWE
 70
    -2
  9
$DIMTMOVE
 70
     0
  9
$DIMFXL
 40
1.0
  9
$DIMFXLON
 70
     0
  9
$DIMJOGANG
 40
0.7853981633974483
  9
$DIMTFILL
 70
     0
  9
$DIMTFILLCLR
 70
     0
  9
$DIMARCSYM
 70
     0
  9
$DIMLTYPE
  6

  9
$DIMLTEX1
  6

  9
$DIMLTEX2
  6

  9
$DIMTXTDIRECTION
 70
     0
  9
$LUNITS
 70
     2
  9
$LUPREC
 70
     4
  9
$SKETCHINC
 40
0.1
  9
$FILLETRAD
 40
0.5
  9
$AUNITS
 70
     0
  9
$AUPREC
 70
     0
  9
$MENU
  1
.
  9
$ELEVATION
 40
0.0
  9
$PELEVATION
 40
0.0
  9
$THICKNESS
 40
0.0
  9
$LIMCHECK
 70
     0
  9
$CHAMFERA
 40
0.5
  9
$CHAMFERB
 40
0.5
  9
$CHAMFERC
 40
1.0
  9
$CHAMFERD
 40
0.0
  9
$SKPOLY
 70
     0
  9
$TDCREATE
 40
2457697.74529103
  9
$TDUCREATE
 40
2457697.703624364
  9
$TDUPDATE
 40
2457697.745294479
  9
$TDUUPDATE
 40
2457697.703627813
  9
$TDINDWG
 40
0.0000000116
  9
$TDUSRTIMER
 40
0.0000000116
  9
$USRTIMER
 70
     1
  9
$ANGBASE
 50
0.0
  9
$ANGDIR
 70
     0
  9
$PDMODE
 70
     0
  9
$PDSIZE
 40
0.0
  9
$PLINEWID
 40
0.0
  9
$SPLFRAME
 70
     0
  9
$SPLINETYPE
 70
     6
  9
$SPLINESEGS
 70
     8
  9
$HANDSEED
  5
756
  9
$SURFTAB1
 70
     6
  9
$SURFTAB2
 70
     6
  9
$SURFTYPE
 70
     6
  9
$SURFU
 70
     6
  9
$SURFV
 70
     6
  9
$UCSBASE
  2

  9
$UCSNAME
  2

  9
$UCSORG
 10
0.0
 20
0.0
 30
0.0
  9
$UCSXDIR
 10
1.0
 20
0.0
 30
0.0
  9
$UCSYDIR
 10
0.0
 20
1.0
 30
0.0
  9
$UCSORTHOREF
  2

  9
$UCSORTHOVIEW
 70
     0
  9
$UCSORGTOP
 10
0.0
 20
0.0
 30
0.0
  9
$UCSORGBOTTOM
 10
0.0
 20
0.0
 30
0.0
  9
$UCSORGLEFT
 10
0.0
 20
0.0
 30
0.0
  9
$UCSORGRIGHT
 10
0.0
 20
0.0
 30
0.0
  9
$UCSORGFRONT
 10
0.0
 20
0.0
 30
0.0
  9
$UCSORGBACK
 10
0.0
 20
0.0
 30
0.0
  9
$PUCSBASE
  2

  9
$PUCSNAME
  2

  9
$PUCSORG
 10
0.0
 20
0.0
 30
0.0
  9
$PUCSXDIR
 10
1.0
 20
0.0
 30
0.0
  9
$PUCSYDIR
 10
0.0
 20
1.0
 30
0.0
  9
$PUCSORTHOREF
  2

  9
$PUCSORTHOVIEW
 70
     0
  9
$PUCSORGTOP
 10
0.0
 20
0.0
 30
0.0
  9
$PUCSORGBOTTOM
 10
0.0
 20
0.0
 30
0.0
  9
$PUCSORGLEFT
 10
0.0
 20
0.0
 30
0.0
  9
$PUCSORGRIGHT
 10
0.0
 20
0.0
 30
0.0
  9
$PUCSORGFRONT
 10
0.0
 20
0.0
 30
0.0
  9
$PUCSORGBACK
 10
0.0
 20
0.0
 30
0.0
  9
$USERI1
 70
     0
  9
$USERI2
 70
     0
  9
$USERI3
 70
     0
  9
$USERI4
 70
     0
  9
$USERI5
 70
     0
  9
$USERR1
 40
0.0
  9
$USERR2
 40
0.0
  9
$USERR3
 40
0.0
  9
$USERR4
 40
0.0
  9
$USERR5
 40
0.0
  9
$WORLDVIEW
 70
     1
  9
$SHADEDGE
 70
     3
  9
$SHADEDIF
 70
    70
  9
$TILEMODE
 70
     1
  9
$MAXACTVP
 70
    64
  9
$PINSBASE
 10
0.0
 20
0.0
 30
0.0
  9
$PLIMCHECK
 70
     0
  9
$PEXTMIN
 10
1.000000000000000E+20
 20
1.000000000000000E+20
 30
1.000000000000000E+20
  9
$PEXTMAX
 10
-1.000000000000000E+20
 20
-1.000000000000000E+20
 30
-1.000000000000000E+20
  9
$PLIMMIN
 10
0.0
 20
0.0
  9
$PLIMMAX
 10
12.0
 20
9.0
  9
$UNITMODE
 70
     0
  9
$VISRETAIN
 70
     1
  9
$PLINEGEN
 70
     0
  9
$PSLTSCALE
 70
     1
  9
$TREEDEPTH
 70
  3020
  9
$CMLSTYLE
  2
Standard
  9
$CMLJUST
 70
     0
  9
$CMLSCALE
 40
1.0
  9
$PROXYGRAPHICS
 70
     1
  9
$MEASUREMENT
 70
     0
  9
$CELWEIGHT
370
    -1
  9
$ENDCAPS
280
     0
  9
$JOINSTYLE
280
     0
  9
$LWDISPLAY
290
     1
  9
$INSUNITS
 70
     1
  9
$HYPERLINKBASE
  1

  9
$STYLESHEET
  1

  9
$XEDIT
290
     1
  9
$CEPSNTYPE
380
     0
  9
$PSTYLEMODE
290
     1
  9
$FINGERPRINTGUID
  2
{BF6F7F8F-82F7-4271-BD2D-6A4FB084A8CE}
  9
$VERSIONGUID
  2
{FAEB1C32-E019-11D5-929B-00C0DF256EC4}
  9
$EXTNAMES
290
     1
  9
$PSVPSCALE
 40
0.0
  9
$OLESTARTUP
290
     0
  9
$SORTENTS
280
   127
  9
$INDEXCTL
280
     0
  9
$HIDETEXT
280
     1
  9
$XCLIPFRAME
280
     2
  9
$HALOGAP
280
     0
  9
$OBSCOLOR
 70
   257
  9
$OBSLTYPE
280
     0
  9
$INTERSECTIONDISPLAY
280
     0
  9
$INTERSECTIONCOLOR
 70
   257
  9
$DIMASSOC
280
     2
  9
$PROJECTNAME
  1

  9
$CAMERADISPLAY
290
     0
  9
$LENSLENGTH
 40
50.0
  9
$CAMERAHEIGHT
 40
0.0
  9
$STEPSPERSEC
 40
2.0
  9
$STEPSIZE
 40
6.0
  9
$3DDWFPREC
 40
2.0
  9
$PSOLWIDTH
 40
0.25
  9
$PSOLHEIGHT
 40
4.0
  9
$LOFTANG1
 40
1.570796326794897
  9
$LOFTANG2
 40
1.570796326794897
  9
$LOFTMAG1
 40
0.0
  9
$LOFTMAG2
 40
0.0
  9
$LOFTPARAM
 70
     7
  9
$LOFTNORMALS
280
     1
  9
$LATITUDE
 40
37.795
  9
$LONGITUDE
 40
-122.394
  9
$NORTHDIRECTION
 40
0.0
  9
$TIMEZONE
 70
 -8000
  9
$LIGHTGLYPHDISPLAY
280
     1
  9
$TILEMODELIGHTSYNCH
280
     1
  9
$CMATERIAL
347
3C
  9
$SOLIDHIST
280
     1
  9
$SHOWHIST
280
     1
  9
$DWFFRAME
280
     2
  9
$DGNFRAME
280
     2
  9
$REALWORLDSCALE
290
     1
  9
$INTERFERECOLOR
 62
   256
  9
$CSHADOW
280
     0
  9
$SHADOWPLANELOCATION
 40
0.0
  0
ENDSEC
  0
SECTION
  2
CLASSES
  0
CLASS
  1
ACDBDICTIONARYWDFLT
  2
AcDbDictionaryWithDefault
  3
ObjectDBX Classes
 90
        0
 91
        4
280
     0
281
     0
  0
CLASS
  1
VISUALSTYLE
  2
AcDbVisualStyle
  3
ObjectDBX Classes
 90
     4095
 91
        4
280
     0
281
     0
  0
CLASS
  1
MATERIAL
  2
AcDbMaterial
  3
ObjectDBX Classes
 90
     1153
 91
        4
280
     0
281
     0
  0
CLASS
  1
SUN
  2
AcDbSun
  3
SCENEOE
 90
     1024
 91
        4
280
     0
281
     0
  0
ENDSEC
  0
SECTION
  2
TABLES
  0
TABLE
  2
VPORT
  5
8
330
0
100
AcDbSymbolTable
 70
     1
  0
VPORT
  5
29
330
8
100
AcDbSymbolTableRecord
100
AcDbViewportTableRecord
  2
*Active
 70
     0
 10
0.0
 20
0.0
 11
1.0
 21
1.0
 12
0.0
 22
0.0
 13
0.0
 23
0.0
 14
0.5
 24
0.5
 15
0.5
 25
0.5
 16
0.0
 26
0.0
 36
1.0
 17
116.2402777487177
 27
148.5000555170035
 37
0.0
 40
297.000111034007
 41
1.18899132474344
 42
50.0
 43
0.0
 44
0.0
 50
0.0
 51
0.0
 71
     0
 72
   100
 73
     1
 74
     3
 75
     0
 76
     0
 77
     0
 78
     0
281
     0
 65
     1
110
0.0
120
0.0
130
0.0
111
1.0
121
0.0
131
0.0
112
0.0
122
1.0
132
0.0
 79
     0
146
0.0
 60
     3
 61
     5
292
     1
282
     1
141
0.0
142
0.0
 63
   250
361
3F
  0
ENDTAB
  0
TABLE
  2
LTYPE
  5
5
330
0
100
AcDbSymbolTable
 70
     1
  0
LTYPE
  5
14
330
5
100
AcDbSymbolTableRecord
100
AcDbLinetypeTableRecord
  2
ByBlock
 70
     0
  3

 72
    65
 73
     0
 40
0.0
  0
LTYPE
  5
15
330
5
100
AcDbSymbolTableRecord
100
AcDbLinetypeTableRecord
  2
ByLayer
 70
     0
  3

 72
    65
 73
     0
 40
0.0
  0
LTYPE
  5
16
330
5
100
AcDbSymbolTableRecord
100
AcDbLinetypeTableRecord
  2
Continuous
 70
     0
  3
Solid line
 72
    65
 73
     0
 40
0.0
  0
ENDTAB
  0
TABLE
  2
LAYER
  5
2
330
0
100
AcDbSymbolTable
 70
     2
  0
LAYER
  5
10
330
2
100
AcDbSymbolTableRecord
100
AcDbLayerTableRecord
  2
0
 70
     0
 62
     7
  6
Continuous
370
    -3
390
F
347
3E
  0
LAYER
  5
40
330
2
100
AcDbSymbolTableRecord
100
AcDbLayerTableRecord
  2
BEM
 70
     0
 62
     7
  6
Continuous
370
    -3
390
F
347
3E
  0
ENDTAB
  0
TABLE
  2
STYLE
  5
3
330
0
100
AcDbSymbolTable
 70
     1
  0
STYLE
  5
11
330
3
100
AcDbSymbolTableRecord
100
AcDbTextStyleTableRecord
  2
Standard
 70
     0
 40
0.0
 41
1.0
 50
0.0
 71
     0
 42
0.2
  3
txt
  4

  0
ENDTAB
  0
TABLE
  2
VIEW
  5
6
330
0
100
AcDbSymbolTable
 70
     0
  0
ENDTAB
  0
TABLE
  2
UCS
  5
7
330
0
100
AcDbSymbolTable
 70
     0
  0
ENDTAB
  0
TABLE
  2
APPID
  5
9
330
0
100
AcDbSymbolTable
 70
     1
  0
APPID
  5
12
330
9
100
AcDbSymbolTableRecord
100
AcDbRegAppTableRecord
  2
ACAD
 70
     0
  0
ENDTAB
  0
TABLE
  2
DIMSTYLE
  5
A
330
0
100
AcDbSymbolTable
 70
     1
100
AcDbDimStyleTable
  0
DIMSTYLE
105
27
330
A
100
AcDbSymbolTableRecord
100
AcDbDimStyleTableRecord
  2
Standard
 70
     0
178
     0
340
11
  0
ENDTAB
  0
TABLE
  2
BLOCK_RECORD
  5
1
330
0
100
AcDbSymbolTable
 70
   174
  0
BLOCK_RECORD
  5
1F
330
1
100
AcDbSymbolTableRecord
100
AcDbBlockTableRecord
  2
*Model_Space
340
22
 70
     0
280
     1
281
     0
  0
BLOCK_RECORD
  5
1B
330
1
100
AcDbSymbolTableRecord
100
AcDbBlockTableRecord
  2
*Paper_Space
340
1E
 70
     0
280
     1
281
     0
  0
BLOCK_RECORD
  5
23
330
1
100
AcDbSymbolTableRecord
100
AcDbBlockTableRecord
  2
*Paper_Space0
340
26
 70
     0
280
     1
281
     0
  0
BLOCK_RECORD
  5
41
330
1
100
AcDbSymbolTableRecord
100
AcDbBlockTableRecord
  2
block 2
340
0
102
{BLKREFS
331
42
102
}
 70
     0
280
     1
281
     0
  0
BLOCK_RECORD
  5
49
330
1
100
AcDbSymbolTableRecord
100
AcDbBlockTableRecord
  2
block 3
340
0
102
{BLKREFS
331
4A
102
}
 70
     0
280
     1
281
     0
  0
BLOCK_RECORD
  5
51
330
1
100
AcDbSymbolTableRecord
100
AcDbBlockTableRecord
  2
block 4
340
0
102
{BLKREFS
331
52
102
}
 70
     0
280
     1
281
     0
  0
BLOCK_RECORD
  5
59
330
1
100
AcDbSymbolTableRecord
100
AcDbBlockTableRecord
  2
block 5
340
0
102
{BLKREFS
331
5A
102
}
 70
     0
280
     1
281
     0
  0
BLOCK_RECORD
  5
61
330
1
100
AcDbSymbolTableRecord
100
AcDbBlockTableRecord
  2
block 6
340
0
102
{BLKREFS
331
62
102
}
 70
     0
280
     1
281
     0
  0
BLOCK_RECORD
  5
69
330
1
100
AcDbSymbolTableRecord
100
AcDbBlockTableRecord
  2
block 7
340
0
102
{BLKREFS
331
6A
102
}
 70
     0
280
     1
281
     0
  0
BLOCK_RECORD
  5
71
330
1
100
AcDbSymbolTableRecord
100
AcDbBlockTableRecord
  2
block 8
340
0
102
{BLKREFS
331
72
102
}
 70
     0
280
     1
281
     0
  0
BLOCK_RECORD
  5
7C
330
1
100
AcDbSymbolTableRecord
100
AcDbBlockTableRecord
  2
block 9
340
0
102
{BLKREFS
331
7D
102
}
 70
     0
280
     1
281
     0
  0
BLOCK_RECORD
  5
87
330
1
100
AcDbSymbolTableRecord
100
AcDbBlockTableRecord
  2
block 10
340
0
102
{BLKREFS
331
88
102
}
 70
     0
280
     1
281
     0
  0
BLOCK_RECORD
  5
8F
330
1
100
AcDbSymbolTableRecord
100
AcDbBlockTableRecord
  2
block 11
340
0
102
{BLKREFS
331
90
102
}
 70
     0
280
     1
281
     0
  0
BLOCK_RECORD
  5
97
330
1
100
AcDbSymbolTableRecord
100
AcDbBlockTableRecord
  2
block 12
340
0
102
{BLKREFS
331
98
102
}
 70
     0
280
     1
281
     0
  0
BLOCK_RECORD
  5
9F
330
1
100
AcDbSymbolTableRecord
100
AcDbBlockTableRecord
  2
block 13
340
0
102
{BLKREFS
331
A0
102
}
 70
     0
280
     1
281
     0
  0
BLOCK_RECORD
  5
A7
330
1
100
AcDbSymbolTableRecord
100
AcDbBlockTableRecord
  2
block 14
340
0
102
{BLKREFS
331
A8
102
}
 70
     0
280
     1
281
     0
  0
BLOCK_RECORD
  5
AF
330
1
100
AcDbSymbolTableRecord
100
AcDbBlockTableRecord
  2
block 15
340
0
102
{BLKREFS
331
B0
102
}
 70
     0
280
     1
281
     0
  0
BLOCK_RECORD
  5
B7
330
1
100
AcDbSymbolTableRecord
100
AcDbBlockTableRecord
  2
block 16
340
0
102
{BLKREFS
331
B8
102
}
 70
     0
280
     1
281
     0
  0
BLOCK_RECORD
  5
C2
330
1
100
AcDbSymbolTableRecord
100
AcDbBlockTableRecord
  2
block 17
340
0
102
{BLKREFS
331
C3
102
}
 70
     0
280
     1
281
     0
  0
BLOCK_RECORD
  5
CD
330
1
100
AcDbSymbolTableRecord
100
AcDbBlockTableRecord
  2
block 18
340
0
102
{BLKREFS
331
CE
102
}
 70
     0
280
     1
281
     0
  0
BLOCK_RECORD
  5
D5
330
1
100
AcDbSymbolTableRecord
100
AcDbBlockTableRecord
  2
block 19
340
0
102
{BLKREFS
331
D6
102
}
 70
     0
280
     1
281
     0
  0
BLOCK_RECORD
  5
DD
330
1
100
AcDbSymbolTableRecord
100
AcDbBlockTableRecord
  2
block 20
340
0
102
{BLKREFS
331
DE
102
}
 70
     0
280
     1
281
     0
  0
BLOCK_RECORD
  5
E5
330
1
100
AcDbSymbolTableRecord
100
AcDbBlockTableRecord
  2
block 21
340
0
102
{BLKREFS
331
E6
102
}
 70
     0
280
     1
281
     0
  0
BLOCK_RECORD
  5
ED
330
1
100
AcDbSymbolTableRecord
100
AcDbBlockTableRecord
  2
block 22
340
0
102
{BLKREFS
331
EE
102
}
 70
     0
280
     1
281
     0
  0
BLOCK_RECORD
  5
F5
330
1
100
AcDbSymbolTableRecord
100
AcDbBlockTableRecord
  2
block 23
340
0
102
{BLKREFS
331
F6
102
}
 70
     0
280
     1
281
     0
  0
BLOCK_RECORD
  5
FD
330
1
100
AcDbSymbolTableRecord
100
AcDbBlockTableRecord
  2
block 24
340
0
102
{BLKREFS
331
FE
102
}
 70
     0
280
     1
281
     0
  0
BLOCK_RECORD
  5
108
330
1
100
AcDbSymbolTableRecord
100
AcDbBlockTableRecord
  2
block 25
340
0
102
{BLKREFS
331
109
102
}
 70
     0
280
     1
281
     0
  0
BLOCK_RECORD
  5
113
330
1
100
AcDbSymbolTableRecord
100
AcDbBlockTableRecord
  2
block 26
340
0
102
{BLKREFS
331
114
102
}
 70
     0
280
     1
281
     0
  0
BLOCK_RECORD
  5
11B
330
1
100
AcDbSymbolTableRecord
100
AcDbBlockTableRecord
  2
block 27
340
0
102
{BLKREFS
331
11C
102
}
 70
     0
280
     1
281
     0
  0
BLOCK_RECORD
  5
123
330
1
100
AcDbSymbolTableRecord
100
AcDbBlockTableRecord
  2
block 28
340
0
102
{BLKREFS
331
124
102
}
 70
     0
280
     1
281
     0
  0
BLOCK_RECORD
  5
12B
330
1
100
AcDbSymbolTableRecord
100
AcDbBlockTableRecord
  2
block 29
340
0
102
{BLKREFS
331
12C
102
}
 70
     0
280
     1
281
     0
  0
BLOCK_RECORD
  5
133
330
1
100
AcDbSymbolTableRecord
100
AcDbBlockTableRecord
  2
block 30
340
0
102
{BLKREFS
331
134
102
}
 70
     0
280
     1
281
     0
  0
BLOCK_RECORD
  5
13B
330
1
100
AcDbSymbolTableRecord
100
AcDbBlockTableRecord
  2
block 31
340
0
102
{BLKREFS
331
13C
102
}
 70
     0
280
     1
281
     0
  0
BLOCK_RECORD
  5
143
330
1
100
AcDbSymbolTableRecord
100
AcDbBlockTableRecord
  2
block 32
340
0
102
{BLKREFS
331
144
102
}
 70
     0
280
     1
281
     0
  0
BLOCK_RECORD
  5
14E
330
1
100
AcDbSymbolTableRecord
100
AcDbBlockTableRecord
  2
block 33
340
0
102
{BLKREFS
331
14F
102
}
 70
     0
280
     1
281
     0
  0
BLOCK_RECORD
  5
159
330
1
100
AcDbSymbolTableRecord
100
AcDbBlockTableRecord
  2
block 34
340
0
102
{BLKREFS
331
15A
102
}
 70
     0
280
     1
281
     0
  0
BLOCK_RECORD
  5
161
330
1
100
AcDbSymbolTableRecord
100
AcDbBlockTableRecord
  2
block 35
340
0
102
{BLKREFS
331
162
102
}
 70
     0
280
     1
281
     0
  0
BLOCK_RECORD
  5
169
330
1
100
AcDbSymbolTableRecord
100
AcDbBlockTableRecord
  2
block 36
340
0
102
{BLKREFS
331
16A
102
}
 70
     0
280
     1
281
     0
  0
BLOCK_RECORD
  5
171
330
1
100
AcDbSymbolTableRecord
100
AcDbBlockTableRecord
  2
block 37
340
0
102
{BLKREFS
331
172
102
}
 70
     0
280
     1
281
     0
  0
BLOCK_RECORD
  5
179
330
1
100
AcDbSymbolTableRecord
100
AcDbBlockTableRecord
  2
block 38
340
0
102
{BLKREFS
331
17A
102
}
 70
     0
280
     1
281
     0
  0
BLOCK_RECORD
  5
181
330
1
100
AcDbSymbolTableRecord
100
AcDbBlockTableRecord
  2
block 39
340
0
102
{BLKREFS
331
182
102
}
 70
     0
280
     1
281
     0
  0
BLOCK_RECORD
  5
189
330
1
100
AcDbSymbolTableRecord
100
AcDbBlockTableRecord
  2
block 40
340
0
102
{BLKREFS
331
18A
102
}
 70
     0
280
     1
281
     0
  0
BLOCK_RECORD
  5
194
330
1
100
AcDbSymbolTableRecord
100
AcDbBlockTableRecord
  2
block 41
340
0
102
{BLKREFS
331
195
102
}
 70
     0
280
     1
281
     0
  0
BLOCK_RECORD
  5
19F
330
1
100
AcDbSymbolTableRecord
100
AcDbBlockTableRecord
  2
block 42
340
0
102
{BLKREFS
331
1A0
102
}
 70
     0
280
     1
281
     0
  0
BLOCK_RECORD
  5
1A7
330
1
100
AcDbSymbolTableRecord
100
AcDbBlockTableRecord
  2
block 43
340
0
102
{BLKREFS
331
1A8
102
}
 70
     0
280
     1
281
     0
  0
BLOCK_RECORD
  5
1AF
330
1
100
AcDbSymbolTableRecord
100
AcDbBlockTableRecord
  2
block 44
340
0
102
{BLKREFS
331
1B0
102
}
 70
     0
280
     1
281
     0
  0
BLOCK_RECORD
  5
1B7
330
1
100
AcDbSymbolTableRecord
100
AcDbBlockTableRecord
  2
block 45
340
0
102
{BLKREFS
331
1B8
102
}
 70
     0
280
     1
281
     0
  0
BLOCK_RECORD
  5
1BF
330
1
100
AcDbSymbolTableRecord
100
AcDbBlockTableRecord
  2
block 46
340
0
102
{BLKREFS
331
1C0
102
}
 70
     0
280
     1
281
     0
  0
BLOCK_RECORD
  5
1C7
330
1
100
AcDbSymbolTableRecord
100
AcDbBlockTableRecord
  2
block 47
340
0
102
{BLKREFS
331
1C8
102
}
 70
     0
280
     1
281
     0
  0
BLOCK_RECORD
  5
1CF
330
1
100
AcDbSymbolTableRecord
100
AcDbBlockTableRecord
  2
block 48
340
0
102
{BLKREFS
331
1D0
102
}
 70
     0
280
     1
281
     0
  0
BLOCK_RECORD
  5
1D7
330
1
100
AcDbSymbolTableRecord
100
AcDbBlockTableRecord
  2
block 49
340
0
102
{BLKREFS
331
1D8
102
}
 70
     0
280
     1
281
     0
  0
BLOCK_RECORD
  5
1E2
330
1
100
AcDbSymbolTableRecord
100
AcDbBlockTableRecord
  2
block 50
340
0
102
{BLKREFS
331
1E3
102
}
 70
     0
280
     1
281
     0
  0
BLOCK_RECORD
  5
1ED
330
1
100
AcDbSymbolTableRecord
100
AcDbBlockTableRecord
  2
block 51
340
0
102
{BLKREFS
331
1EE
102
}
 70
     0
280
     1
281
     0
  0
BLOCK_RECORD
  5
1F5
330
1
100
AcDbSymbolTableRecord
100
AcDbBlockTableRecord
  2
block 52
340
0
102
{BLKREFS
331
1F6
102
}
 70
     0
280
     1
281
     0
  0
BLOCK_RECORD
  5
1FD
330
1
100
AcDbSymbolTableRecord
100
AcDbBlockTableRecord
  2
block 53
340
0
102
{BLKREFS
331
1FE
102
}
 70
     0
280
     1
281
     0
  0
BLOCK_RECORD
  5
205
330
1
100
AcDbSymbolTableRecord
100
AcDbBlockTableRecord
  2
block 54
340
0
102
{BLKREFS
331
206
102
}
 70
     0
280
     1
281
     0
  0
BLOCK_RECORD
  5
20D
330
1
100
AcDbSymbolTableRecord
100
AcDbBlockTableRecord
  2
block 55
340
0
102
{BLKREFS
331
20E
102
}
 70
     0
280
     1
281
     0
  0
BLOCK_RECORD
  5
218
330
1
100
AcDbSymbolTableRecord
100
AcDbBlockTableRecord
  2
block 56
340
0
102
{BLKREFS
331
219
102
}
 70
     0
280
     1
281
     0
  0
BLOCK_RECORD
  5
220
330
1
100
AcDbSymbolTableRecord
100
AcDbBlockTableRecord
  2
block 57
340
0
102
{BLKREFS
331
221
102
}
 70
     0
280
     1
281
     0
  0
BLOCK_RECORD
  5
228
330
1
100
AcDbSymbolTableRecord
100
AcDbBlockTableRecord
  2
block 58
340
0
102
{BLKREFS
331
229
102
}
 70
     0
280
     1
281
     0
  0
BLOCK_RECORD
  5
230
330
1
100
AcDbSymbolTableRecord
100
AcDbBlockTableRecord
  2
block 59
340
0
102
{BLKREFS
331
231
102
}
 70
     0
280
     1
281
     0
  0
BLOCK_RECORD
  5
256
330
1
100
AcDbSymbolTableRecord
100
AcDbBlockTableRecord
  2
block 60
340
0
102
{BLKREFS
331
257
102
}
 70
     0
280
     1
281
     0
  0
BLOCK_RECORD
  5
25E
330
1
100
AcDbSymbolTableRecord
100
AcDbBlockTableRecord
  2
block 61
340
0
102
{BLKREFS
331
25F
102
}
 70
     0
280
     1
281
     0
  0
BLOCK_RECORD
  5
272
330
1
100
AcDbSymbolTableRecord
100
AcDbBlockTableRecord
  2
block 62
340
0
102
{BLKREFS
331
273
102
}
 70
     0
280
     1
281
     0
  0
BLOCK_RECORD
  5
27A
330
1
100
AcDbSymbolTableRecord
100
AcDbBlockTableRecord
  2
block 63
340
0
102
{BLKREFS
331
27B
102
}
 70
     0
280
     1
281
     0
  0
BLOCK_RECORD
  5
282
330
1
100
AcDbSymbolTableRecord
100
AcDbBlockTableRecord
  2
block 64
340
0
102
{BLKREFS
331
283
102
}
 70
     0
280
     1
281
     0
  0
BLOCK_RECORD
  5
28A
330
1
100
AcDbSymbolTableRecord
100
AcDbBlockTableRecord
  2
block 65
340
0
102
{BLKREFS
331
28B
102
}
 70
     0
280
     1
281
     0
  0
BLOCK_RECORD
  5
292
330
1
100
AcDbSymbolTableRecord
100
AcDbBlockTableRecord
  2
block 66
340
0
102
{BLKREFS
331
293
102
}
 70
     0
280
     1
281
     0
  0
BLOCK_RECORD
  5
297
330
1
100
AcDbSymbolTableRecord
100
AcDbBlockTableRecord
  2
block 67
340
0
102
{BLKREFS
331
298
102
}
 70
     0
280
     1
281
     0
  0
BLOCK_RECORD
  5
29F
330
1
100
AcDbSymbolTableRecord
100
AcDbBlockTableRecord
  2
block 68
340
0
102
{BLKREFS
331
2A0
102
}
 70
     0
280
     1
281
     0
  0
BLOCK_RECORD
  5
2A7
330
1
100
AcDbSymbolTableRecord
100
AcDbBlockTableRecord
  2
block 69
340
0
102
{BLKREFS
331
2A8
102
}
 70
     0
280
     1
281
     0
  0
BLOCK_RECORD
  5
2AF
330
1
100
AcDbSymbolTableRecord
100
AcDbBlockTableRecord
  2
block 70
340
0
102
{BLKREFS
331
2B0
102
}
 70
     0
280
     1
281
     0
  0
BLOCK_RECORD
  5
2B7
330
1
100
AcDbSymbolTableRecord
100
AcDbBlockTableRecord
  2
block 71
340
0
102
{BLKREFS
331
2B8
102
}
 70
     0
280
     1
281
     0
  0
BLOCK_RECORD
  5
2BF
330
1
100
AcDbSymbolTableRecord
100
AcDbBlockTableRecord
  2
block 72
340
0
102
{BLKREFS
331
2C0
102
}
 70
     0
280
     1
281
     0
  0
BLOCK_RECORD
  5
2C4
330
1
100
AcDbSymbolTableRecord
100
AcDbBlockTableRecord
  2
block 73
340
0
102
{BLKREFS
331
2C5
102
}
 70
     0
280
     1
281
     0
  0
BLOCK_RECORD
  5
2CC
330
1
100
AcDbSymbolTableRecord
100
AcDbBlockTableRecord
  2
block 74
340
0
102
{BLKREFS
331
2CD
102
}
 70
     0
280
     1
281
     0
  0
BLOCK_RECORD
  5
2D4
330
1
100
AcDbSymbolTableRecord
100
AcDbBlockTableRecord
  2
block 75
340
0
102
{BLKREFS
331
2D5
102
}
 70
     0
280
     1
281
     0
  0
BLOCK_RECORD
  5
2DC
330
1
100
AcDbSymbolTableRecord
100
AcDbBlockTableRecord
  2
block 76
340
0
102
{BLKREFS
331
2DD
102
}
 70
     0
280
     1
281
     0
  0
BLOCK_RECORD
  5
2E1
330
1
100
AcDbSymbolTableRecord
100
AcDbBlockTableRecord
  2
block 77
340
0
102
{BLKREFS
331
2E2
102
}
 70
     0
280
     1
281
     0
  0
BLOCK_RECORD
  5
2E9
330
1
100
AcDbSymbolTableRecord
100
AcDbBlockTableRecord
  2
block 78
340
0
102
{BLKREFS
331
2EA
102
}
 70
     0
280
     1
281
     0
  0
BLOCK_RECORD
  5
2F1
330
1
100
AcDbSymbolTableRecord
100
AcDbBlockTableRecord
  2
block 79
340
0
102
{BLKREFS
331
2F2
102
}
 70
     0
280
     1
281
     0
  0
BLOCK_RECORD
  5
2F9
330
1
100
AcDbSymbolTableRecord
100
AcDbBlockTableRecord
  2
block 80
340
0
102
{BLKREFS
331
2FA
102
}
 70
     0
280
     1
281
     0
  0
BLOCK_RECORD
  5
301
330
1
100
AcDbSymbolTableRecord
100
AcDbBlockTableRecord
  2
block 81
340
0
102
{BLKREFS
331
302
102
}
 70
     0
280
     1
281
     0
  0
BLOCK_RECORD
  5
309
330
1
100
AcDbSymbolTableRecord
100
AcDbBlockTableRecord
  2
block 82
340
0
102
{BLKREFS
331
30A
102
}
 70
     0
280
     1
281
     0
  0
BLOCK_RECORD
  5
30E
330
1
100
AcDbSymbolTableRecord
100
AcDbBlockTableRecord
  2
block 83
340
0
102
{BLKREFS
331
30F
102
}
 70
     0
280
     1
281
     0
  0
BLOCK_RECORD
  5
316
330
1
100
AcDbSymbolTableRecord
100
AcDbBlockTableRecord
  2
block 84
340
0
102
{BLKREFS
331
317
102
}
 70
     0
280
     1
281
     0
  0
BLOCK_RECORD
  5
31E
330
1
100
AcDbSymbolTableRecord
100
AcDbBlockTableRecord
  2
block 85
340
0
102
{BLKREFS
331
31F
102
}
 70
     0
280
     1
281
     0
  0
BLOCK_RECORD
  5
326
330
1
100
AcDbSymbolTableRecord
100
AcDbBlockTableRecord
  2
block 86
340
0
102
{BLKREFS
331
327
102
}
 70
     0
280
     1
281
     0
  0
BLOCK_RECORD
  5
32E
330
1
100
AcDbSymbolTableRecord
100
AcDbBlockTableRecord
  2
block 87
340
0
102
{BLKREFS
331
32F
102
}
 70
     0
280
     1
281
     0
  0
BLOCK_RECORD
  5
336
330
1
100
AcDbSymbolTableRecord
100
AcDbBlockTableRecord
  2
block 88
340
0
102
{BLKREFS
331
337
102
}
 70
     0
280
     1
281
     0
  0
BLOCK_RECORD
  5
33E
330
1
100
AcDbSymbolTableRecord
100
AcDbBlockTableRecord
  2
block 89
340
0
102
{BLKREFS
331
33F
102
}
 70
     0
280
     1
281
     0
  0
BLOCK_RECORD
  5
346
330
1
100
AcDbSymbolTableRecord
100
AcDbBlockTableRecord
  2
block 90
340
0
102
{BLKREFS
331
347
102
}
 70
     0
280
     1
281
     0
  0
BLOCK_RECORD
  5
34E
330
1
100
AcDbSymbolTableRecord
100
AcDbBlockTableRecord
  2
block 91
340
0
102
{BLKREFS
331
34F
102
}
 70
     0
280
     1
281
     0
  0
BLOCK_RECORD
  5
356
330
1
100
AcDbSymbolTableRecord
100
AcDbBlockTableRecord
  2
block 92
340
0
102
{BLKREFS
331
357
102
}
 70
     0
280
     1
281
     0
  0
BLOCK_RECORD
  5
35B
330
1
100
AcDbSymbolTableRecord
100
AcDbBlockTableRecord
  2
block 93
340
0
102
{BLKREFS
331
35C
102
}
 70
     0
280
     1
281
     0
  0
BLOCK_RECORD
  5
363
330
1
100
AcDbSymbolTableRecord
100
AcDbBlockTableRecord
  2
block 94
340
0
102
{BLKREFS
331
364
102
}
 70
     0
280
     1
281
     0
  0
BLOCK_RECORD
  5
36B
330
1
100
AcDbSymbolTableRecord
100
AcDbBlockTableRecord
  2
block 95
340
0
102
{BLKREFS
331
36C
102
}
 70
     0
280
     1
281
     0
  0
BLOCK_RECORD
  5
370
330
1
100
AcDbSymbolTableRecord
100
AcDbBlockTableRecord
  2
block 96
340
0
102
{BLKREFS
331
371
102
}
 70
     0
280
     1
281
     0
  0
BLOCK_RECORD
  5
378
330
1
100
AcDbSymbolTableRecord
100
AcDbBlockTableRecord
  2
block 97
340
0
102
{BLKREFS
331
379
102
}
 70
     0
280
     1
281
     0
  0
BLOCK_RECORD
  5
380
330
1
100
AcDbSymbolTableRecord
100
AcDbBlockTableRecord
  2
block 98
340
0
102
{BLKREFS
331
381
102
}
 70
     0
280
     1
281
     0
  0
BLOCK_RECORD
  5
388
330
1
100
AcDbSymbolTableRecord
100
AcDbBlockTableRecord
  2
block 99
340
0
102
{BLKREFS
331
389
102
}
 70
     0
280
     1
281
     0
  0
BLOCK_RECORD
  5
390
330
1
100
AcDbSymbolTableRecord
100
AcDbBlockTableRecord
  2
block 100
340
0
102
{BLKREFS
331
391
102
}
 70
     0
280
     1
281
     0
  0
BLOCK_RECORD
  5
398
330
1
100
AcDbSymbolTableRecord
100
AcDbBlockTableRecord
  2
block 101
340
0
102
{BLKREFS
331
399
102
}
 70
     0
280
     1
281
     0
  0
BLOCK_RECORD
  5
3A0
330
1
100
AcDbSymbolTableRecord
100
AcDbBlockTableRecord
  2
block 102
340
0
102
{BLKREFS
331
3A1
102
}
 70
     0
280
     1
281
     0
  0
BLOCK_RECORD
  5
3A8
330
1
100
AcDbSymbolTableRecord
100
AcDbBlockTableRecord
  2
block 103
340
0
102
{BLKREFS
331
3A9
102
}
 70
     0
280
     1
281
     0
  0
BLOCK_RECORD
  5
3B0
330
1
100
AcDbSymbolTableRecord
100
AcDbBlockTableRecord
  2
block 104
340
0
102
{BLKREFS
331
3B1
102
}
 70
     0
280
     1
281
     0
  0
BLOCK_RECORD
  5
3B8
330
1
100
AcDbSymbolTableRecord
100
AcDbBlockTableRecord
  2
block 105
340
0
102
{BLKREFS
331
3B9
102
}
 70
     0
280
     1
281
     0
  0
BLOCK_RECORD
  5
3BD
330
1
100
AcDbSymbolTableRecord
100
AcDbBlockTableRecord
  2
block 106
340
0
102
{BLKREFS
331
3BE
102
}
 70
     0
280
     1
281
     0
  0
BLOCK_RECORD
  5
3C5
330
1
100
AcDbSymbolTableRecord
100
AcDbBlockTableRecord
  2
block 107
340
0
102
{BLKREFS
331
3C6
102
}
 70
     0
280
     1
281
     0
  0
BLOCK_RECORD
  5
3CA
330
1
100
AcDbSymbolTableRecord
100
AcDbBlockTableRecord
  2
block 108
340
0
102
{BLKREFS
331
3CB
102
}
 70
     0
280
     1
281
     0
  0
BLOCK_RECORD
  5
3D2
330
1
100
AcDbSymbolTableRecord
100
AcDbBlockTableRecord
  2
block 109
340
0
102
{BLKREFS
331
3D3
102
}
 70
     0
280
     1
281
     0
  0
BLOCK_RECORD
  5
3DA
330
1
100
AcDbSymbolTableRecord
100
AcDbBlockTableRecord
  2
block 110
340
0
102
{BLKREFS
331
3DB
102
}
 70
     0
280
     1
281
     0
  0
BLOCK_RECORD
  5
3E2
330
1
100
AcDbSymbolTableRecord
100
AcDbBlockTableRecord
  2
block 111
340
0
102
{BLKREFS
331
3E3
102
}
 70
     0
280
     1
281
     0
  0
BLOCK_RECORD
  5
3EA
330
1
100
AcDbSymbolTableRecord
100
AcDbBlockTableRecord
  2
block 112
340
0
102
{BLKREFS
331
3EB
102
}
 70
     0
280
     1
281
     0
  0
BLOCK_RECORD
  5
3F2
330
1
100
AcDbSymbolTableRecord
100
AcDbBlockTableRecord
  2
block 113
340
0
102
{BLKREFS
331
3F3
102
}
 70
     0
280
     1
281
     0
  0
BLOCK_RECORD
  5
3FA
330
1
100
AcDbSymbolTableRecord
100
AcDbBlockTableRecord
  2
block 114
340
0
102
{BLKREFS
331
3FB
102
}
 70
     0
280
     1
281
     0
  0
BLOCK_RECORD
  5
574
330
1
100
AcDbSymbolTableRecord
100
AcDbBlockTableRecord
  2
block 115
340
0
102
{BLKREFS
331
575
102
}
 70
     0
280
     1
281
     0
  0
BLOCK_RECORD
  5
57C
330
1
100
AcDbSymbolTableRecord
100
AcDbBlockTableRecord
  2
block 116
340
0
102
{BLKREFS
331
57D
102
}
 70
     0
280
     1
281
     0
  0
BLOCK_RECORD
  5
584
330
1
100
AcDbSymbolTableRecord
100
AcDbBlockTableRecord
  2
block 117
340
0
102
{BLKREFS
331
585
102
}
 70
     0
280
     1
281
     0
  0
BLOCK_RECORD
  5
58C
330
1
100
AcDbSymbolTableRecord
100
AcDbBlockTableRecord
  2
block 118
340
0
102
{BLKREFS
331
58D
102
}
 70
     0
280
     1
281
     0
  0
BLOCK_RECORD
  5
594
330
1
100
AcDbSymbolTableRecord
100
AcDbBlockTableRecord
  2
block 119
340
0
102
{BLKREFS
331
595
102
}
 70
     0
280
     1
281
     0
  0
BLOCK_RECORD
  5
59C
330
1
100
AcDbSymbolTableRecord
100
AcDbBlockTableRecord
  2
block 120
340
0
102
{BLKREFS
331
59D
102
}
 70
     0
280
     1
281
     0
  0
BLOCK_RECORD
  5
5A4
330
1
100
AcDbSymbolTableRecord
100
AcDbBlockTableRecord
  2
block 121
340
0
102
{BLKREFS
331
5A5
102
}
 70
     0
280
     1
281
     0
  0
BLOCK_RECORD
  5
5AC
330
1
100
AcDbSymbolTableRecord
100
AcDbBlockTableRecord
  2
block 122
340
0
102
{BLKREFS
331
5AD
102
}
 70
     0
280
     1
281
     0
  0
BLOCK_RECORD
  5
5B4
330
1
100
AcDbSymbolTableRecord
100
AcDbBlockTableRecord
  2
block 123
340
0
102
{BLKREFS
331
5B5
102
}
 70
     0
280
     1
281
     0
  0
BLOCK_RECORD
  5
5BC
330
1
100
AcDbSymbolTableRecord
100
AcDbBlockTableRecord
  2
block 124
340
0
102
{BLKREFS
331
5BD
102
}
 70
     0
280
     1
281
     0
  0
BLOCK_RECORD
  5
5C4
330
1
100
AcDbSymbolTableRecord
100
AcDbBlockTableRecord
  2
block 125
340
0
102
{BLKREFS
331
5C5
102
}
 70
     0
280
     1
281
     0
  0
BLOCK_RECORD
  5
5CC
330
1
100
AcDbSymbolTableRecord
100
AcDbBlockTableRecord
  2
block 126
340
0
102
{BLKREFS
331
5CD
102
}
 70
     0
280
     1
281
     0
  0
BLOCK_RECORD
  5
5D4
330
1
100
AcDbSymbolTableRecord
100
AcDbBlockTableRecord
  2
block 127
340
0
102
{BLKREFS
331
5D5
102
}
 70
     0
280
     1
281
     0
  0
BLOCK_RECORD
  5
5DC
330
1
100
AcDbSymbolTableRecord
100
AcDbBlockTableRecord
  2
block 128
340
0
102
{BLKREFS
331
5DD
102
}
 70
     0
280
     1
281
     0
  0
BLOCK_RECORD
  5
5E4
330
1
100
AcDbSymbolTableRecord
100
AcDbBlockTableRecord
  2
block 129
340
0
102
{BLKREFS
331
5E5
102
}
 70
     0
280
     1
281
     0
  0
BLOCK_RECORD
  5
5EC
330
1
100
AcDbSymbolTableRecord
100
AcDbBlockTableRecord
  2
block 130
340
0
102
{BLKREFS
331
5ED
102
}
 70
     0
280
     1
281
     0
  0
BLOCK_RECORD
  5
5F4
330
1
100
AcDbSymbolTableRecord
100
AcDbBlockTableRecord
  2
block 131
340
0
102
{BLKREFS
331
5F5
102
}
 70
     0
280
     1
281
     0
  0
BLOCK_RECORD
  5
5FC
330
1
100
AcDbSymbolTableRecord
100
AcDbBlockTableRecord
  2
block 132
340
0
102
{BLKREFS
331
5FD
102
}
 70
     0
280
     1
281
     0
  0
BLOCK_RECORD
  5
604
330
1
100
AcDbSymbolTableRecord
100
AcDbBlockTableRecord
  2
block 133
340
0
102
{BLKREFS
331
605
102
}
 70
     0
280
     1
281
     0
  0
BLOCK_RECORD
  5
60C
330
1
100
AcDbSymbolTableRecord
100
AcDbBlockTableRecord
  2
block 134
340
0
102
{BLKREFS
331
60D
102
}
 70
     0
280
     1
281
     0
  0
BLOCK_RECORD
  5
614
330
1
100
AcDbSymbolTableRecord
100
AcDbBlockTableRecord
  2
block 135
340
0
102
{BLKREFS
331
615
102
}
 70
     0
280
     1
281
     0
  0
BLOCK_RECORD
  5
61C
330
1
100
AcDbSymbolTableRecord
100
AcDbBlockTableRecord
  2
block 136
340
0
102
{BLKREFS
331
61D
102
}
 70
     0
280
     1
281
     0
  0
BLOCK_RECORD
  5
624
330
1
100
AcDbSymbolTableRecord
100
AcDbBlockTableRecord
  2
block 137
340
0
102
{BLKREFS
331
625
102
}
 70
     0
280
     1
281
     0
  0
BLOCK_RECORD
  5
62C
330
1
100
AcDbSymbolTableRecord
100
AcDbBlockTableRecord
  2
block 138
340
0
102
{BLKREFS
331
62D
102
}
 70
     0
280
     1
281
     0
  0
BLOCK_RECORD
  5
634
330
1
100
AcDbSymbolTableRecord
100
AcDbBlockTableRecord
  2
block 139
340
0
102
{BLKREFS
331
635
102
}
 70
     0
280
     1
281
     0
  0
BLOCK_RECORD
  5
63C
330
1
100
AcDbSymbolTableRecord
100
AcDbBlockTableRecord
  2
block 140
340
0
102
{BLKREFS
331
63D
102
}
 70
     0
280
     1
281
     0
  0
BLOCK_RECORD
  5
644
330
1
100
AcDbSymbolTableRecord
100
AcDbBlockTableRecord
  2
block 141
340
0
102
{BLKREFS
331
645
102
}
 70
     0
280
     1
281
     0
  0
BLOCK_RECORD
  5
64C
330
1
100
AcDbSymbolTableRecord
100
AcDbBlockTableRecord
  2
block 142
340
0
102
{BLKREFS
331
64D
102
}
 70
     0
280
     1
281
     0
  0
BLOCK_RECORD
  5
654
330
1
100
AcDbSymbolTableRecord
100
AcDbBlockTableRecord
  2
block 143
340
0
102
{BLKREFS
331
655
102
}
 70
     0
280
     1
281
     0
  0
BLOCK_RECORD
  5
65C
330
1
100
AcDbSymbolTableRecord
100
AcDbBlockTableRecord
  2
block 144
340
0
102
{BLKREFS
331
65D
102
}
 70
     0
280
     1
281
     0
  0
BLOCK_RECORD
  5
664
330
1
100
AcDbSymbolTableRecord
100
AcDbBlockTableRecord
  2
block 145
340
0
102
{BLKREFS
331
665
102
}
 70
     0
280
     1
281
     0
  0
BLOCK_RECORD
  5
66C
330
1
100
AcDbSymbolTableRecord
100
AcDbBlockTableRecord
  2
block 146
340
0
102
{BLKREFS
331
66D
102
}
 70
     0
280
     1
281
     0
  0
BLOCK_RECORD
  5
674
330
1
100
AcDbSymbolTableRecord
100
AcDbBlockTableRecord
  2
block 147
340
0
102
{BLKREFS
331
675
102
}
 70
     0
280
     1
281
     0
  0
BLOCK_RECORD
  5
67C
330
1
100
AcDbSymbolTableRecord
100
AcDbBlockTableRecord
  2
block 148
340
0
102
{BLKREFS
331
67D
102
}
 70
     0
280
     1
281
     0
  0
BLOCK_RECORD
  5
684
330
1
100
AcDbSymbolTableRecord
100
AcDbBlockTableRecord
  2
block 149
340
0
102
{BLKREFS
331
685
102
}
 70
     0
280
     1
281
     0
  0
BLOCK_RECORD
  5
68C
330
1
100
AcDbSymbolTableRecord
100
AcDbBlockTableRecord
  2
block 150
340
0
102
{BLKREFS
331
68D
102
}
 70
     0
280
     1
281
     0
  0
BLOCK_RECORD
  5
694
330
1
100
AcDbSymbolTableRecord
100
AcDbBlockTableRecord
  2
block 151
340
0
102
{BLKREFS
331
695
102
}
 70
     0
280
     1
281
     0
  0
BLOCK_RECORD
  5
69C
330
1
100
AcDbSymbolTableRecord
100
AcDbBlockTableRecord
  2
block 152
340
0
102
{BLKREFS
331
69D
102
}
 70
     0
280
     1
281
     0
  0
BLOCK_RECORD
  5
6A4
330
1
100
AcDbSymbolTableRecord
100
AcDbBlockTableRecord
  2
block 153
340
0
102
{BLKREFS
331
6A5
102
}
 70
     0
280
     1
281
     0
  0
BLOCK_RECORD
  5
6AC
330
1
100
AcDbSymbolTableRecord
100
AcDbBlockTableRecord
  2
block 154
340
0
102
{BLKREFS
331
6AD
102
}
 70
     0
280
     1
281
     0
  0
BLOCK_RECORD
  5
6B4
330
1
100
AcDbSymbolTableRecord
100
AcDbBlockTableRecord
  2
block 155
340
0
102
{BLKREFS
331
6B5
102
}
 70
     0
280
     1
281
     0
  0
BLOCK_RECORD
  5
6BC
330
1
100
AcDbSymbolTableRecord
100
AcDbBlockTableRecord
  2
block 156
340
0
102
{BLKREFS
331
6BD
102
}
 70
     0
280
     1
281
     0
  0
BLOCK_RECORD
  5
6C4
330
1
100
AcDbSymbolTableRecord
100
AcDbBlockTableRecord
  2
block 157
340
0
102
{BLKREFS
331
6C5
102
}
 70
     0
280
     1
281
     0
  0
BLOCK_RECORD
  5
6CC
330
1
100
AcDbSymbolTableRecord
100
AcDbBlockTableRecord
  2
block 158
340
0
102
{BLKREFS
331
6CD
102
}
 70
     0
280
     1
281
     0
  0
BLOCK_RECORD
  5
6D4
330
1
100
AcDbSymbolTableRecord
100
AcDbBlockTableRecord
  2
block 159
340
0
102
{BLKREFS
331
6D5
102
}
 70
     0
280
     1
281
     0
  0
BLOCK_RECORD
  5
6DC
330
1
100
AcDbSymbolTableRecord
100
AcDbBlockTableRecord
  2
block 160
340
0
102
{BLKREFS
331
6DD
102
}
 70
     0
280
     1
281
     0
  0
BLOCK_RECORD
  5
6E4
330
1
100
AcDbSymbolTableRecord
100
AcDbBlockTableRecord
  2
block 161
340
0
102
{BLKREFS
331
6E5
102
}
 70
     0
280
     1
281
     0
  0
BLOCK_RECORD
  5
6EC
330
1
100
AcDbSymbolTableRecord
100
AcDbBlockTableRecord
  2
block 162
340
0
102
{BLKREFS
331
6ED
102
}
 70
     0
280
     1
281
     0
  0
BLOCK_RECORD
  5
6F4
330
1
100
AcDbSymbolTableRecord
100
AcDbBlockTableRecord
  2
block 163
340
0
102
{BLKREFS
331
6F5
102
}
 70
     0
280
     1
281
     0
  0
BLOCK_RECORD
  5
6FC
330
1
100
AcDbSymbolTableRecord
100
AcDbBlockTableRecord
  2
block 164
340
0
102
{BLKREFS
331
6FD
102
}
 70
     0
280
     1
281
     0
  0
BLOCK_RECORD
  5
704
330
1
100
AcDbSymbolTableRecord
100
AcDbBlockTableRecord
  2
block 165
340
0
102
{BLKREFS
331
705
102
}
 70
     0
280
     1
281
     0
  0
BLOCK_RECORD
  5
70C
330
1
100
AcDbSymbolTableRecord
100
AcDbBlockTableRecord
  2
block 166
340
0
102
{BLKREFS
331
70D
102
}
 70
     0
280
     1
281
     0
  0
BLOCK_RECORD
  5
714
330
1
100
AcDbSymbolTableRecord
100
AcDbBlockTableRecord
  2
block 167
340
0
102
{BLKREFS
331
715
102
}
 70
     0
280
     1
281
     0
  0
BLOCK_RECORD
  5
71C
330
1
100
AcDbSymbolTableRecord
100
AcDbBlockTableRecord
  2
block 168
340
0
102
{BLKREFS
331
71D
102
}
 70
     0
280
     1
281
     0
  0
BLOCK_RECORD
  5
724
330
1
100
AcDbSymbolTableRecord
100
AcDbBlockTableRecord
  2
block 169
340
0
102
{BLKREFS
331
725
102
}
 70
     0
280
     1
281
     0
  0
BLOCK_RECORD
  5
72C
330
1
100
AcDbSymbolTableRecord
100
AcDbBlockTableRecord
  2
block 170
340
0
102
{BLKREFS
331
72D
102
}
 70
     0
280
     1
281
     0
  0
BLOCK_RECORD
  5
734
330
1
100
AcDbSymbolTableRecord
100
AcDbBlockTableRecord
  2
block 171
340
0
102
{BLKREFS
331
735
102
}
 70
     0
280
     1
281
     0
  0
BLOCK_RECORD
  5
73C
330
1
100
AcDbSymbolTableRecord
100
AcDbBlockTableRecord
  2
block 172
340
0
102
{BLKREFS
331
73D
102
}
 70
     0
280
     1
281
     0
  0
BLOCK_RECORD
  5
744
330
1
100
AcDbSymbolTableRecord
100
AcDbBlockTableRecord
  2
block 173
340
0
102
{BLKREFS
331
745
102
}
 70
     0
280
     1
281
     0
  0
BLOCK_RECORD
  5
74C
330
1
100
AcDbSymbolTableRecord
100
AcDbBlockTableRecord
  2
block 174
340
0
102
{BLKREFS
331
74D
102
}
 70
     0
280
     1
281
     0
  0
ENDTAB
  0
ENDSEC
  0
SECTION
  2
BLOCKS
  0
BLOCK
  5
20
330
1F
100
AcDbEntity
  8
0
100
AcDbBlockBegin
  2
*Model_Space
 70
     0
 10
0.0
 20
0.0
 30
0.0
  3
*Model_Space
  1

  0
ENDBLK
  5
21
330
1F
100
AcDbEntity
  8
0
100
AcDbBlockEnd
  0
BLOCK
  5
1C
330
1B
100
AcDbEntity
 67
     1
  8
0
100
AcDbBlockBegin
  2
*Paper_Space
 70
     0
 10
0.0
 20
0.0
 30
0.0
  3
*Paper_Space
  1

  0
ENDBLK
  5
1D
330
1B
100
AcDbEntity
 67
     1
  8
0
100
AcDbBlockEnd
  0
BLOCK
  5
24
330
23
100
AcDbEntity
  8
0
100
AcDbBlockBegin
  2
*Paper_Space0
 70
     0
 10
0.0
 20
0.0
 30
0.0
  3
*Paper_Space0
  1

  0
ENDBLK
  5
25
330
23
100
AcDbEntity
  8
0
100
AcDbBlockEnd
  0
BLOCK
  5
43
330
41
100
AcDbEntity
  8
0
100
AcDbBlockBegin
  2
block 2
 70
     0
 10
0.0
 20
0.0
 30
0.0
  3
block 2
  1

  0
POLYLINE
  5
45
330
41
100
AcDbEntity
  8
BEM
 62
     7
420
 16777215
370
    15
100
AcDb2dPolyline
 66
     1
 10
0.0
 20
0.0
 30
0.0
  0
VERTEX
  5
46
330
45
100
AcDbEntity
  8
BEM
 62
     7
420
 16777215
370
    15
100
AcDbVertex
100
AcDb2dVertex
 10
-8.14574472018573
 20
110.420817460708
 30
0.0
  0
VERTEX
  5
47
330
45
100
AcDbEntity
  8
BEM
 62
     7
420
 16777215
370
    15
100
AcDbVertex
100
AcDb2dVertex
 10
-8.14574472018573
 20
108.8205822237557
 30
0.0
  0
SEQEND
  5
48
330
45
100
AcDbEntity
  8
BEM
 62
     7
420
 16777215
370
    15
  0
ENDBLK
  5
44
330
41
100
AcDbEntity
  8
0
100
AcDbBlockEnd
  0
BLOCK
  5
4B
330
49
100
AcDbEntity
  8
0
100
AcDbBlockBegin
  2
block 3
 70
     0
 10
0.0
 20
0.0
 30
0.0
  3
block 3
  1

  0
POLYLINE
  5
4D
330
49
100
AcDbEntity
  8
BEM
370
     0
100
AcDb2dPolyline
 66
     1
 10
0.0
 20
0.0
 30
0.0
  0
VERTEX
  5
4E
330
4D
100
AcDbEntity
  8
BEM
370
     0
100
AcDbVertex
100
AcDb2dVertex
 10
-8.208292220170195
 20
108.8205822237557
 30
0.0
  0
VERTEX
  5
4F
330
4D
100
AcDbEntity
  8
BEM
370
     0
100
AcDbVertex
100
AcDb2dVertex
 10
-11.6940188859654
 20
108.8205822237557
 30
0.0
  0
SEQEND
  5
50
330
4D
100
AcDbEntity
  8
BEM
370
     0
  0
ENDBLK
  5
4C
330
49
100
AcDbEntity
  8
0
100
AcDbBlockEnd
  0
BLOCK
  5
53
330
51
100
AcDbEntity
  8
0
100
AcDbBlockBegin
  2
block 4
 70
     0
 10
0.0
 20
0.0
 30
0.0
  3
block 4
  1

  0
POLYLINE
  5
55
330
51
100
AcDbEntity
  8
BEM
 62
   153
420
  4105180
370
    25
100
AcDb2dPolyline
 66
     1
 10
0.0
 20
0.0
 30
0.0
  0
VERTEX
  5
56
330
55
100
AcDbEntity
  8
BEM
 62
   153
420
  4105180
370
    25
100
AcDbVertex
100
AcDb2dVertex
 10
-8.208292220170195
 20
110.420817460708
 30
0.0
  0
VERTEX
  5
57
330
55
100
AcDbEntity
  8
BEM
 62
   153
420
  4105180
370
    25
100
AcDbVertex
100
AcDb2dVertex
 10
-11.6940188859654
 20
110.420817460708
 30
0.0
  0
SEQEND
  5
58
330
55
100
AcDbEntity
  8
BEM
 62
   153
420
  4105180
370
    25
  0
ENDBLK
  5
54
330
51
100
AcDbEntity
  8
0
100
AcDbBlockEnd
  0
BLOCK
  5
5B
330
59
100
AcDbEntity
  8
0
100
AcDbBlockBegin
  2
block 5
 70
     0
 10
0.0
 20
0.0
 30
0.0
  3
block 5
  1

  0
POLYLINE
  5
5D
330
59
100
AcDbEntity
  8
BEM
 62
   153
420
  4105180
370
    25
100
AcDb2dPolyline
 66
     1
 10
0.0
 20
0.0
 30
0.0
  0
VERTEX
  5
5E
330
5D
100
AcDbEntity
  8
BEM
 62
   153
420
  4105180
370
    25
100
AcDbVertex
100
AcDb2dVertex
 10
-11.6940188859654
 20
105.518793974658
 30
0.0
  0
VERTEX
  5
5F
330
5D
100
AcDbEntity
  8
BEM
 62
   153
420
  4105180
370
    25
100
AcDbVertex
100
AcDb2dVertex
 10
-11.6940188859654
 20
102.2166555300012
 30
0.0
  0
SEQEND
  5
60
330
5D
100
AcDbEntity
  8
BEM
 62
   153
420
  4105180
370
    25
  0
ENDBLK
  5
5C
330
59
100
AcDbEntity
  8
0
100
AcDbBlockEnd
  0
BLOCK
  5
63
330
61
100
AcDbEntity
  8
0
100
AcDbBlockBegin
  2
block 6
 70
     0
 10
0.0
 20
0.0
 30
0.0
  3
block 6
  1

  0
POLYLINE
  5
65
330
61
100
AcDbEntity
  8
BEM
 62
   153
420
  4105180
370
    25
100
AcDb2dPolyline
 66
     1
 10
0.0
 20
0.0
 30
0.0
  0
VERTEX
  5
66
330
65
100
AcDbEntity
  8
BEM
 62
   153
420
  4105180
370
    25
100
AcDbVertex
100
AcDb2dVertex
 10
-11.6940188859654
 20
113.7226057098057
 30
0.0
  0
VERTEX
  5
67
330
65
100
AcDbEntity
  8
BEM
 62
   153
420
  4105180
370
    25
100
AcDbVertex
100
AcDb2dVertex
 10
-11.6940188859654
 20
123.1497449137438
 30
0.0
  0
SEQEND
  5
68
330
65
100
AcDbEntity
  8
BEM
 62
   153
420
  4105180
370
    25
  0
ENDBLK
  5
64
330
61
100
AcDbEntity
  8
0
100
AcDbBlockEnd
  0
BLOCK
  5
6B
330
69
100
AcDbEntity
  8
0
100
AcDbBlockBegin
  2
block 7
 70
     0
 10
0.0
 20
0.0
 30
0.0
  3
block 7
  1

  0
POLYLINE
  5
6D
330
69
100
AcDbEntity
  8
BEM
 62
   153
420
  4105180
370
    25
100
AcDb2dPolyline
 66
     1
 10
0.0
 20
0.0
 30
0.0
  0
VERTEX
  5
6E
330
6D
100
AcDbEntity
  8
BEM
 62
   153
420
  4105180
370
    25
100
AcDbVertex
100
AcDb2dVertex
 10
-11.6940188859654
 20
108.8205822237557
 30
0.0
  0
VERTEX
  5
6F
330
6D
100
AcDbEntity
  8
BEM
 62
   153
420
  4105180
370
    25
100
AcDbVertex
100
AcDb2dVertex
 10
-11.6940188859654
 20
110.420817460708
 30
0.0
  0
SEQEND
  5
70
330
6D
100
AcDbEntity
  8
BEM
 62
   153
420
  4105180
370
    25
  0
ENDBLK
  5
6C
330
69
100
AcDbEntity
  8
0
100
AcDbBlockEnd
  0
BLOCK
  5
73
330
71
100
AcDbEntity
  8
0
100
AcDbBlockBegin
  2
block 8
 70
     0
 10
0.0
 20
0.0
 30
0.0
  3
block 8
  1

  0
POLYLINE
  5
75
330
71
100
AcDbEntity
  8
BEM
370
     0
100
AcDb2dPolyline
 66
     1
 10
0.0
 20
0.0
 30
0.0
  0
VERTEX
  5
76
330
75
100
AcDbEntity
  8
BEM
370
     0
100
AcDbVertex
100
AcDb2dVertex
 10
-12.24438749693881
 20
105.518793974658
 30
0.0
  0
VERTEX
  5
77
330
75
100
AcDbEntity
  8
BEM
370
     0
100
AcDbVertex
100
AcDb2dVertex
 10
-11.14368555276951
 20
105.518793974658
 30
0.0
  0
VERTEX
  5
78
330
75
100
AcDbEntity
  8
BEM
370
     0
100
AcDbVertex
100
AcDb2dVertex
 10
-11.6940188859654
 20
108.8205822237557
 30
0.0
  0
VERTEX
  5
79
330
75
100
AcDbEntity
  8
BEM
370
     0
100
AcDbVertex
100
AcDb2dVertex
 10
-12.24438749693881
 20
105.518793974658
 30
0.0
  0
SEQEND
  5
7B
330
75
100
AcDbEntity
  8
BEM
370
     0
  0
HATCH
  5
7A
330
71
100
AcDbEntity
  8
BEM
 62
   153
420
  4105180
100
AcDbHatch
 10
0.0
 20
0.0
 30
0.0
210
0.0
220
0.0
230
1.0
  2
SOLID
 70
     1
 71
     0
 91
        1
 92
        1
 93
        3
 72
     1
 10
-12.24438749693881
 20
105.518793974658
 11
-11.14368555276951
 21
105.518793974658
 72
     1
 10
-11.14368555276951
 20
105.518793974658
 11
-11.6940188859654
 21
108.8205822237557
 72
     1
 10
-11.6940188859654
 20
108.8205822237557
 11
-12.24438749693881
 21
105.518793974658
 97
        0
 75
     2
 76
     1
 98
        0
  0
ENDBLK
  5
74
330
71
100
AcDbEntity
  8
0
100
AcDbBlockEnd
  0
BLOCK
  5
7E
330
7C
100
AcDbEntity
  8
0
100
AcDbBlockBegin
  2
block 9
 70
     0
 10
0.0
 20
0.0
 30
0.0
  3
block 9
  1

  0
POLYLINE
  5
80
330
7C
100
AcDbEntity
  8
BEM
370
     0
100
AcDb2dPolyline
 66
     1
 10
0.0
 20
0.0
 30
0.0
  0
VERTEX
  5
81
330
80
100
AcDbEntity
  8
BEM
370
     0
100
AcDbVertex
100
AcDb2dVertex
 10
-12.24438749693881
 20
113.7226057098057
 30
0.0
  0
VERTEX
  5
82
330
80
100
AcDbEntity
  8
BEM
370
     0
100
AcDbVertex
100
AcDb2dVertex
 10
-11.14368555276951
 20
113.7226057098057
 30
0.0
  0
VERTEX
  5
83
330
80
100
AcDbEntity
  8
BEM
370
     0
100
AcDbVertex
100
AcDb2dVertex
 10
-11.6940188859654
 20
110.420817460708
 30
0.0
  0
VERTEX
  5
84
330
80
100
AcDbEntity
  8
BEM
370
     0
100
AcDbVertex
100
AcDb2dVertex
 10
-12.24438749693881
 20
113.7226057098057
 30
0.0
  0
SEQEND
  5
86
330
80
100
AcDbEntity
  8
BEM
370
     0
  0
HATCH
  5
85
330
7C
100
AcDbEntity
  8
BEM
 62
   153
420
  4105180
100
AcDbHatch
 10
0.0
 20
0.0
 30
0.0
210
0.0
220
0.0
230
1.0
  2
SOLID
 70
     1
 71
     0
 91
        1
 92
        1
 93
        3
 72
     1
 10
-12.24438749693881
 20
113.7226057098057
 11
-11.14368555276951
 21
113.7226057098057
 72
     1
 10
-11.14368555276951
 20
113.7226057098057
 11
-11.6940188859654
 21
110.420817460708
 72
     1
 10
-11.6940188859654
 20
110.420817460708
 11
-12.24438749693881
 21
113.7226057098057
 97
        0
 75
     2
 76
     1
 98
        0
  0
ENDBLK
  5
7F
330
7C
100
AcDbEntity
  8
0
100
AcDbBlockEnd
  0
BLOCK
  5
89
330
87
100
AcDbEntity
  8
0
100
AcDbBlockBegin
  2
block 10
 70
     0
 10
0.0
 20
0.0
 30
0.0
  3
block 10
  1

  0
POLYLINE
  5
8B
330
87
100
AcDbEntity
  8
BEM
370
     0
100
AcDb2dPolyline
 66
     1
 10
0.0
 20
0.0
 30
0.0
  0
VERTEX
  5
8C
330
8B
100
AcDbEntity
  8
BEM
370
     0
100
AcDbVertex
100
AcDb2dVertex
 10
-8.14574472018573
 20
108.8205822237557
 30
0.0
  0
VERTEX
  5
8D
330
8B
100
AcDbEntity
  8
BEM
370
     0
100
AcDbVertex
100
AcDb2dVertex
 10
-8.14574472018573
 20
108.8205822237557
 30
0.0
  0
SEQEND
  5
8E
330
8B
100
AcDbEntity
  8
BEM
370
     0
  0
ENDBLK
  5
8A
330
87
100
AcDbEntity
  8
0
100
AcDbBlockEnd
  0
BLOCK
  5
91
330
8F
100
AcDbEntity
  8
0
100
AcDbBlockBegin
  2
block 11
 70
     0
 10
0.0
 20
0.0
 30
0.0
  3
block 11
  1

  0
POLYLINE
  5
93
330
8F
100
AcDbEntity
  8
BEM
370
     0
100
AcDb2dPolyline
 66
     1
 10
0.0
 20
0.0
 30
0.0
  0
VERTEX
  5
94
330
93
100
AcDbEntity
  8
BEM
370
     0
100
AcDbVertex
100
AcDb2dVertex
 10
-8.14574472018573
 20
110.420817460708
 30
0.0
  0
VERTEX
  5
95
330
93
100
AcDbEntity
  8
BEM
370
     0
100
AcDbVertex
100
AcDb2dVertex
 10
-8.14574472018573
 20
110.420817460708
 30
0.0
  0
SEQEND
  5
96
330
93
100
AcDbEntity
  8
BEM
370
     0
  0
ENDBLK
  5
92
330
8F
100
AcDbEntity
  8
0
100
AcDbBlockEnd
  0
BLOCK
  5
99
330
97
100
AcDbEntity
  8
0
100
AcDbBlockBegin
  2
block 12
 70
     0
 10
0.0
 20
0.0
 30
0.0
  3
block 12
  1

  0
POLYLINE
  5
9B
330
97
100
AcDbEntity
  8
BEM
370
     0
100
AcDb2dPolyline
 66
     1
 10
0.0
 20
0.0
 30
0.0
  0
VERTEX
  5
9C
330
9B
100
AcDbEntity
  8
BEM
370
     0
100
AcDbVertex
100
AcDb2dVertex
 10
-11.6940188859654
 20
110.420817460708
 30
0.0
  0
VERTEX
  5
9D
330
9B
100
AcDbEntity
  8
BEM
370
     0
100
AcDbVertex
100
AcDb2dVertex
 10
-11.6940188859654
 20
110.420817460708
 30
0.0
  0
SEQEND
  5
9E
330
9B
100
AcDbEntity
  8
BEM
370
     0
  0
ENDBLK
  5
9A
330
97
100
AcDbEntity
  8
0
100
AcDbBlockEnd
  0
BLOCK
  5
A1
330
9F
100
AcDbEntity
  8
0
100
AcDbBlockBegin
  2
block 13
 70
     0
 10
0.0
 20
0.0
 30
0.0
  3
block 13
  1

  0
POLYLINE
  5
A3
330
9F
100
AcDbEntity
  8
BEM
 62
   153
420
  4105180
370
    25
100
AcDb2dPolyline
 66
     1
 10
0.0
 20
0.0
 30
0.0
  0
VERTEX
  5
A4
330
A3
100
AcDbEntity
  8
BEM
 62
   153
420
  4105180
370
    25
100
AcDbVertex
100
AcDb2dVertex
 10
-8.208292220170195
 20
203.6991805046308
 30
0.0
  0
VERTEX
  5
A5
330
A3
100
AcDbEntity
  8
BEM
 62
   153
420
  4105180
370
    25
100
AcDbVertex
100
AcDb2dVertex
 10
-22.15747832779407
 20
203.6991805046308
 30
0.0
  0
SEQEND
  5
A6
330
A3
100
AcDbEntity
  8
BEM
 62
   153
420
  4105180
370
    25
  0
ENDBLK
  5
A2
330
9F
100
AcDbEntity
  8
0
100
AcDbBlockEnd
  0
BLOCK
  5
A9
330
A7
100
AcDbEntity
  8
0
100
AcDbBlockBegin
  2
block 14
 70
     0
 10
0.0
 20
0.0
 30
0.0
  3
block 14
  1

  0
POLYLINE
  5
AB
330
A7
100
AcDbEntity
  8
BEM
 62
   153
420
  4105180
370
    25
100
AcDb2dPolyline
 66
     1
 10
0.0
 20
0.0
 30
0.0
  0
VERTEX
  5
AC
330
AB
100
AcDbEntity
  8
BEM
 62
   153
420
  4105180
370
    25
100
AcDbVertex
100
AcDb2dVertex
 10
-8.208292220170195
 20
188.6992410192146
 30
0.0
  0
VERTEX
  5
AD
330
AB
100
AcDbEntity
  8
BEM
 62
   153
420
  4105180
370
    25
100
AcDbVertex
100
AcDb2dVertex
 10
-22.15747832779407
 20
188.6992410192146
 30
0.0
  0
SEQEND
  5
AE
330
AB
100
AcDbEntity
  8
BEM
 62
   153
420
  4105180
370
    25
  0
ENDBLK
  5
AA
330
A7
100
AcDbEntity
  8
0
100
AcDbBlockEnd
  0
BLOCK
  5
B1
330
AF
100
AcDbEntity
  8
0
100
AcDbBlockBegin
  2
block 15
 70
     0
 10
0.0
 20
0.0
 30
0.0
  3
block 15
  1

  0
POLYLINE
  5
B3
330
AF
100
AcDbEntity
  8
BEM
 62
   153
420
  4105180
370
    25
100
AcDb2dPolyline
 66
     1
 10
0.0
 20
0.0
 30
0.0
  0
VERTEX
  5
B4
330
B3
100
AcDbEntity
  8
BEM
 62
   153
420
  4105180
370
    25
100
AcDbVertex
100
AcDb2dVertex
 10
-22.15747832779407
 20
200.3972459985514
 30
0.0
  0
VERTEX
  5
B5
330
B3
100
AcDbEntity
  8
BEM
 62
   153
420
  4105180
370
    25
100
AcDbVertex
100
AcDb2dVertex
 10
-22.15747832779407
 20
192.0012056571967
 30
0.0
  0
SEQEND
  5
B6
330
B3
100
AcDbEntity
  8
BEM
 62
   153
420
  4105180
370
    25
  0
ENDBLK
  5
B2
330
AF
100
AcDbEntity
  8
0
100
AcDbBlockEnd
  0
BLOCK
  5
B9
330
B7
100
AcDbEntity
  8
0
100
AcDbBlockBegin
  2
block 16
 70
     0
 10
0.0
 20
0.0
 30
0.0
  3
block 16
  1

  0
POLYLINE
  5
BB
330
B7
100
AcDbEntity
  8
BEM
370
     0
100
AcDb2dPolyline
 66
     1
 10
0.0
 20
0.0
 30
0.0
  0
VERTEX
  5
BC
330
BB
100
AcDbEntity
  8
BEM
370
     0
100
AcDbVertex
100
AcDb2dVertex
 10
-22.7076705498786
 20
200.3972459985514
 30
0.0
  0
VERTEX
  5
BD
330
BB
100
AcDbEntity
  8
BEM
370
     0
100
AcDbVertex
100
AcDb2dVertex
 10
-21.60710971682034
 20
200.3972459985514
 30
0.0
  0
VERTEX
  5
BE
330
BB
100
AcDbEntity
  8
BEM
370
     0
100
AcDbVertex
100
AcDb2dVertex
 10
-22.15747832779407
 20
203.6991805046308
 30
0.0
  0
VERTEX
  5
BF
330
BB
100
AcDbEntity
  8
BEM
370
     0
100
AcDbVertex
100
AcDb2dVertex
 10
-22.7076705498786
 20
200.3972459985514
 30
0.0
  0
SEQEND
  5
C1
330
BB
100
AcDbEntity
  8
BEM
370
     0
  0
HATCH
  5
C0
330
B7
100
AcDbEntity
  8
BEM
 62
   153
420
  4105180
100
AcDbHatch
 10
0.0
 20
0.0
 30
0.0
210
0.0
220
0.0
230
1.0
  2
SOLID
 70
     1
 71
     0
 91
        1
 92
        1
 93
        3
 72
     1
 10
-22.7076705498786
 20
200.3972459985514
 11
-21.60710971682034
 21
200.3972459985514
 72
     1
 10
-21.60710971682034
 20
200.3972459985514
 11
-22.15747832779407
 21
203.6991805046308
 72
     1
 10
-22.15747832779407
 20
203.6991805046308
 11
-22.7076705498786
 21
200.3972459985514
 97
        0
 75
     2
 76
     1
 98
        0
  0
ENDBLK
  5
BA
330
B7
100
AcDbEntity
  8
0
100
AcDbBlockEnd
  0
BLOCK
  5
C4
330
C2
100
AcDbEntity
  8
0
100
AcDbBlockBegin
  2
block 17
 70
     0
 10
0.0
 20
0.0
 30
0.0
  3
block 17
  1

  0
POLYLINE
  5
C6
330
C2
100
AcDbEntity
  8
BEM
370
     0
100
AcDb2dPolyline
 66
     1
 10
0.0
 20
0.0
 30
0.0
  0
VERTEX
  5
C7
330
C6
100
AcDbEntity
  8
BEM
370
     0
100
AcDbVertex
100
AcDb2dVertex
 10
-22.7076705498786
 20
192.0012056571967
 30
0.0
  0
VERTEX
  5
C8
330
C6
100
AcDbEntity
  8
BEM
370
     0
100
AcDbVertex
100
AcDb2dVertex
 10
-21.60710971682034
 20
192.0012056571967
 30
0.0
  0
VERTEX
  5
C9
330
C6
100
AcDbEntity
  8
BEM
370
     0
100
AcDbVertex
100
AcDb2dVertex
 10
-22.15747832779407
 20
188.6992410192146
 30
0.0
  0
VERTEX
  5
CA
330
C6
100
AcDbEntity
  8
BEM
370
     0
100
AcDbVertex
100
AcDb2dVertex
 10
-22.7076705498786
 20
192.0012056571967
 30
0.0
  0
SEQEND
  5
CC
330
C6
100
AcDbEntity
  8
BEM
370
     0
  0
HATCH
  5
CB
330
C2
100
AcDbEntity
  8
BEM
 62
   153
420
  4105180
100
AcDbHatch
 10
0.0
 20
0.0
 30
0.0
210
0.0
220
0.0
230
1.0
  2
SOLID
 70
     1
 71
     0
 91
        1
 92
        1
 93
        3
 72
     1
 10
-22.7076705498786
 20
192.0012056571967
 11
-21.60710971682034
 21
192.0012056571967
 72
     1
 10
-21.60710971682034
 20
192.0012056571967
 11
-22.15747832779407
 21
188.6992410192146
 72
     1
 10
-22.15747832779407
 20
188.6992410192146
 11
-22.7076705498786
 21
192.0012056571967
 97
        0
 75
     2
 76
     1
 98
        0
  0
ENDBLK
  5
C5
330
C2
100
AcDbEntity
  8
0
100
AcDbBlockEnd
  0
BLOCK
  5
CF
330
CD
100
AcDbEntity
  8
0
100
AcDbBlockBegin
  2
block 18
 70
     0
 10
0.0
 20
0.0
 30
0.0
  3
block 18
  1

  0
POLYLINE
  5
D1
330
CD
100
AcDbEntity
  8
BEM
370
     0
100
AcDb2dPolyline
 66
     1
 10
0.0
 20
0.0
 30
0.0
  0
VERTEX
  5
D2
330
D1
100
AcDbEntity
  8
BEM
370
     0
100
AcDbVertex
100
AcDb2dVertex
 10
-8.14574472018573
 20
203.6991805046308
 30
0.0
  0
VERTEX
  5
D3
330
D1
100
AcDbEntity
  8
BEM
370
     0
100
AcDbVertex
100
AcDb2dVertex
 10
-8.14574472018573
 20
203.6991805046308
 30
0.0
  0
SEQEND
  5
D4
330
D1
100
AcDbEntity
  8
BEM
370
     0
  0
ENDBLK
  5
D0
330
CD
100
AcDbEntity
  8
0
100
AcDbBlockEnd
  0
BLOCK
  5
D7
330
D5
100
AcDbEntity
  8
0
100
AcDbBlockBegin
  2
block 19
 70
     0
 10
0.0
 20
0.0
 30
0.0
  3
block 19
  1

  0
POLYLINE
  5
D9
330
D5
100
AcDbEntity
  8
BEM
370
     0
100
AcDb2dPolyline
 66
     1
 10
0.0
 20
0.0
 30
0.0
  0
VERTEX
  5
DA
330
D9
100
AcDbEntity
  8
BEM
370
     0
100
AcDbVertex
100
AcDb2dVertex
 10
-8.14574472018573
 20
188.6992410192146
 30
0.0
  0
VERTEX
  5
DB
330
D9
100
AcDbEntity
  8
BEM
370
     0
100
AcDbVertex
100
AcDb2dVertex
 10
-8.14574472018573
 20
188.6992410192146
 30
0.0
  0
SEQEND
  5
DC
330
D9
100
AcDbEntity
  8
BEM
370
     0
  0
ENDBLK
  5
D8
330
D5
100
AcDbEntity
  8
0
100
AcDbBlockEnd
  0
BLOCK
  5
DF
330
DD
100
AcDbEntity
  8
0
100
AcDbBlockBegin
  2
block 20
 70
     0
 10
0.0
 20
0.0
 30
0.0
  3
block 20
  1

  0
POLYLINE
  5
E1
330
DD
100
AcDbEntity
  8
BEM
370
     0
100
AcDb2dPolyline
 66
     1
 10
0.0
 20
0.0
 30
0.0
  0
VERTEX
  5
E2
330
E1
100
AcDbEntity
  8
BEM
370
     0
100
AcDbVertex
100
AcDb2dVertex
 10
-22.15747832779407
 20
188.6992410192146
 30
0.0
  0
VERTEX
  5
E3
330
E1
100
AcDbEntity
  8
BEM
370
     0
100
AcDbVertex
100
AcDb2dVertex
 10
-22.15747832779407
 20
188.6992410192146
 30
0.0
  0
SEQEND
  5
E4
330
E1
100
AcDbEntity
  8
BEM
370
     0
  0
ENDBLK
  5
E0
330
DD
100
AcDbEntity
  8
0
100
AcDbBlockEnd
  0
BLOCK
  5
E7
330
E5
100
AcDbEntity
  8
0
100
AcDbBlockBegin
  2
block 21
 70
     0
 10
0.0
 20
0.0
 30
0.0
  3
block 21
  1

  0
POLYLINE
  5
E9
330
E5
100
AcDbEntity
  8
BEM
 62
   153
420
  4105180
370
    25
100
AcDb2dPolyline
 66
     1
 10
0.0
 20
0.0
 30
0.0
  0
VERTEX
  5
EA
330
E9
100
AcDbEntity
  8
BEM
 62
   153
420
  4105180
370
    25
100
AcDbVertex
100
AcDb2dVertex
 10
241.3540746758779
 20
203.7617228571609
 30
0.0
  0
VERTEX
  5
EB
330
E9
100
AcDbEntity
  8
BEM
 62
   153
420
  4105180
370
    25
100
AcDbVertex
100
AcDb2dVertex
 10
241.3540746758779
 20
234.4332451302208
 30
0.0
  0
SEQEND
  5
EC
330
E9
100
AcDbEntity
  8
BEM
 62
   153
420
  4105180
370
    25
  0
ENDBLK
  5
E8
330
E5
100
AcDbEntity
  8
0
100
AcDbBlockEnd
  0
BLOCK
  5
EF
330
ED
100
AcDbEntity
  8
0
100
AcDbBlockBegin
  2
block 22
 70
     0
 10
0.0
 20
0.0
 30
0.0
  3
block 22
  1

  0
POLYLINE
  5
F1
330
ED
100
AcDbEntity
  8
BEM
 62
   153
420
  4105180
370
    25
100
AcDb2dPolyline
 66
     1
 10
0.0
 20
0.0
 30
0.0
  0
VERTEX
  5
F2
330
F1
100
AcDbEntity
  8
BEM
 62
   153
420
  4105180
370
    25
100
AcDbVertex
100
AcDb2dVertex
 10
-8.14574472018573
 20
203.7617228571609
 30
0.0
  0
VERTEX
  5
F3
330
F1
100
AcDbEntity
  8
BEM
 62
   153
420
  4105180
370
    25
100
AcDbVertex
100
AcDb2dVertex
 10
-8.14574472018573
 20
234.4332451302208
 30
0.0
  0
SEQEND
  5
F4
330
F1
100
AcDbEntity
  8
BEM
 62
   153
420
  4105180
370
    25
  0
ENDBLK
  5
F0
330
ED
100
AcDbEntity
  8
0
100
AcDbBlockEnd
  0
BLOCK
  5
F7
330
F5
100
AcDbEntity
  8
0
100
AcDbBlockBegin
  2
block 23
 70
     0
 10
0.0
 20
0.0
 30
0.0
  3
block 23
  1

  0
POLYLINE
  5
F9
330
F5
100
AcDbEntity
  8
BEM
 62
   153
420
  4105180
370
    25
100
AcDb2dPolyline
 66
     1
 10
0.0
 20
0.0
 30
0.0
  0
VERTEX
  5
FA
330
F9
100
AcDbEntity
  8
BEM
 62
   153
420
  4105180
370
    25
100
AcDbVertex
100
AcDb2dVertex
 10
238.0522864267802
 20
234.4332451302208
 30
0.0
  0
VERTEX
  5
FB
330
F9
100
AcDbEntity
  8
BEM
 62
   153
420
  4105180
370
    25
100
AcDbVertex
100
AcDb2dVertex
 10
-4.843815276566706
 20
234.4332451302208
 30
0.0
  0
SEQEND
  5
FC
330
F9
100
AcDbEntity
  8
BEM
 62
   153
420
  4105180
370
    25
  0
ENDBLK
  5
F8
330
F5
100
AcDbEntity
  8
0
100
AcDbBlockEnd
  0
BLOCK
  5
FF
330
FD
100
AcDbEntity
  8
0
100
AcDbBlockBegin
  2
block 24
 70
     0
 10
0.0
 20
0.0
 30
0.0
  3
block 24
  1

  0
POLYLINE
  5
101
330
FD
100
AcDbEntity
  8
BEM
370
     0
100
AcDb2dPolyline
 66
     1
 10
0.0
 20
0.0
 30
0.0
  0
VERTEX
  5
102
330
101
100
AcDbEntity
  8
BEM
370
     0
100
AcDbVertex
100
AcDb2dVertex
 10
238.0522864267802
 20
234.9835784495139
 30
0.0
  0
VERTEX
  5
103
330
101
100
AcDbEntity
  8
BEM
370
     0
100
AcDbVertex
100
AcDb2dVertex
 10
238.0522864267802
 20
233.8828765331507
 30
0.0
  0
VERTEX
  5
104
330
101
100
AcDbEntity
  8
BEM
370
     0
100
AcDbVertex
100
AcDb2dVertex
 10
241.3540746758779
 20
234.4332451302208
 30
0.0
  0
VERTEX
  5
105
330
101
100
AcDbEntity
  8
BEM
370
     0
100
AcDbVertex
100
AcDb2dVertex
 10
238.0522864267802
 20
234.9835784495139
 30
0.0
  0
SEQEND
  5
107
330
101
100
AcDbEntity
  8
BEM
370
     0
  0
HATCH
  5
106
330
FD
100
AcDbEntity
  8
BEM
 62
   153
420
  4105180
100
AcDbHatch
 10
0.0
 20
0.0
 30
0.0
210
0.0
220
0.0
230
1.0
  2
SOLID
 70
     1
 71
     0
 91
        1
 92
        1
 93
        3
 72
     1
 10
238.0522864267802
 20
234.9835784495139
 11
238.0522864267802
 21
233.8828765331507
 72
     1
 10
238.0522864267802
 20
233.8828765331507
 11
241.3540746758779
 21
234.4332451302208
 72
     1
 10
241.3540746758779
 20
234.4332451302208
 11
238.0522864267802
 21
234.9835784495139
 97
        0
 75
     2
 76
     1
 98
        0
  0
ENDBLK
  5
100
330
FD
100
AcDbEntity
  8
0
100
AcDbBlockEnd
  0
BLOCK
  5
10A
330
108
100
AcDbEntity
  8
0
100
AcDbBlockBegin
  2
block 25
 70
     0
 10
0.0
 20
0.0
 30
0.0
  3
block 25
  1

  0
POLYLINE
  5
10C
330
108
100
AcDbEntity
  8
BEM
370
     0
100
AcDb2dPolyline
 66
     1
 10
0.0
 20
0.0
 30
0.0
  0
VERTEX
  5
10D
330
10C
100
AcDbEntity
  8
BEM
370
     0
100
AcDbVertex
100
AcDb2dVertex
 10
-4.843815276566706
 20
234.9835784495139
 30
0.0
  0
VERTEX
  5
10E
330
10C
100
AcDbEntity
  8
BEM
370
     0
100
AcDbVertex
100
AcDb2dVertex
 10
-4.843815276566706
 20
233.8828765331507
 30
0.0
  0
VERTEX
  5
10F
330
10C
100
AcDbEntity
  8
BEM
370
     0
100
AcDbVertex
100
AcDb2dVertex
 10
-8.14574472018573
 20
234.4332451302208
 30
0.0
  0
VERTEX
  5
110
330
10C
100
AcDbEntity
  8
BEM
370
     0
100
AcDbVertex
100
AcDb2dVertex
 10
-4.843815276566706
 20
234.9835784495139
 30
0.0
  0
SEQEND
  5
112
330
10C
100
AcDbEntity
  8
BEM
370
     0
  0
HATCH
  5
111
330
108
100
AcDbEntity
  8
BEM
 62
   153
420
  4105180
100
AcDbHatch
 10
0.0
 20
0.0
 30
0.0
210
0.0
220
0.0
230
1.0
  2
SOLID
 70
     1
 71
     0
 91
        1
 92
        1
 93
        3
 72
     1
 10
-4.843815276566706
 20
234.9835784495139
 11
-4.843815276566706
 21
233.8828765331507
 72
     1
 10
-4.843815276566706
 20
233.8828765331507
 11
-8.14574472018573
 21
234.4332451302208
 72
     1
 10
-8.14574472018573
 20
234.4332451302208
 11
-4.843815276566706
 21
234.9835784495139
 97
        0
 75
     2
 76
     1
 98
        0
  0
ENDBLK
  5
10B
330
108
100
AcDbEntity
  8
0
100
AcDbBlockEnd
  0
BLOCK
  5
115
330
113
100
AcDbEntity
  8
0
100
AcDbBlockBegin
  2
block 26
 70
     0
 10
0.0
 20
0.0
 30
0.0
  3
block 26
  1

  0
POLYLINE
  5
117
330
113
100
AcDbEntity
  8
BEM
370
     0
100
AcDb2dPolyline
 66
     1
 10
0.0
 20
0.0
 30
0.0
  0
VERTEX
  5
118
330
117
100
AcDbEntity
  8
BEM
370
     0
100
AcDbVertex
100
AcDb2dVertex
 10
241.3540746758779
 20
203.6991805046308
 30
0.0
  0
VERTEX
  5
119
330
117
100
AcDbEntity
  8
BEM
370
     0
100
AcDbVertex
100
AcDb2dVertex
 10
241.3540746758779
 20
203.6991805046308
 30
0.0
  0
SEQEND
  5
11A
330
117
100
AcDbEntity
  8
BEM
370
     0
  0
ENDBLK
  5
116
330
113
100
AcDbEntity
  8
0
100
AcDbBlockEnd
  0
BLOCK
  5
11D
330
11B
100
AcDbEntity
  8
0
100
AcDbBlockBegin
  2
block 27
 70
     0
 10
0.0
 20
0.0
 30
0.0
  3
block 27
  1

  0
POLYLINE
  5
11F
330
11B
100
AcDbEntity
  8
BEM
370
     0
100
AcDb2dPolyline
 66
     1
 10
0.0
 20
0.0
 30
0.0
  0
VERTEX
  5
120
330
11F
100
AcDbEntity
  8
BEM
370
     0
100
AcDbVertex
100
AcDb2dVertex
 10
-8.14574472018573
 20
203.6991805046308
 30
0.0
  0
VERTEX
  5
121
330
11F
100
AcDbEntity
  8
BEM
370
     0
100
AcDbVertex
100
AcDb2dVertex
 10
-8.14574472018573
 20
203.6991805046308
 30
0.0
  0
SEQEND
  5
122
330
11F
100
AcDbEntity
  8
BEM
370
     0
  0
ENDBLK
  5
11E
330
11B
100
AcDbEntity
  8
0
100
AcDbBlockEnd
  0
BLOCK
  5
125
330
123
100
AcDbEntity
  8
0
100
AcDbBlockBegin
  2
block 28
 70
     0
 10
0.0
 20
0.0
 30
0.0
  3
block 28
  1

  0
POLYLINE
  5
127
330
123
100
AcDbEntity
  8
BEM
370
     0
100
AcDb2dPolyline
 66
     1
 10
0.0
 20
0.0
 30
0.0
  0
VERTEX
  5
128
330
127
100
AcDbEntity
  8
BEM
370
     0
100
AcDbVertex
100
AcDb2dVertex
 10
-8.14574472018573
 20
234.4332451302208
 30
0.0
  0
VERTEX
  5
129
330
127
100
AcDbEntity
  8
BEM
370
     0
100
AcDbVertex
100
AcDb2dVertex
 10
-8.14574472018573
 20
234.4332451302208
 30
0.0
  0
SEQEND
  5
12A
330
127
100
AcDbEntity
  8
BEM
370
     0
  0
ENDBLK
  5
126
330
123
100
AcDbEntity
  8
0
100
AcDbBlockEnd
  0
BLOCK
  5
12D
330
12B
100
AcDbEntity
  8
0
100
AcDbBlockBegin
  2
block 29
 70
     0
 10
0.0
 20
0.0
 30
0.0
  3
block 29
  1

  0
POLYLINE
  5
12F
330
12B
100
AcDbEntity
  8
BEM
370
     0
100
AcDb2dPolyline
 66
     1
 10
0.0
 20
0.0
 30
0.0
  0
VERTEX
  5
130
330
12F
100
AcDbEntity
  8
BEM
370
     0
100
AcDbVertex
100
AcDb2dVertex
 10
-8.14574472018573
 20
203.7617228571609
 30
0.0
  0
VERTEX
  5
131
330
12F
100
AcDbEntity
  8
BEM
370
     0
100
AcDbVertex
100
AcDb2dVertex
 10
-8.14574472018573
 20
217.4943736179229
 30
0.0
  0
SEQEND
  5
132
330
12F
100
AcDbEntity
  8
BEM
370
     0
  0
ENDBLK
  5
12E
330
12B
100
AcDbEntity
  8
0
100
AcDbBlockEnd
  0
BLOCK
  5
135
330
133
100
AcDbEntity
  8
0
100
AcDbBlockBegin
  2
block 30
 70
     0
 10
0.0
 20
0.0
 30
0.0
  3
block 30
  1

  0
POLYLINE
  5
137
330
133
100
AcDbEntity
  8
BEM
 62
   153
420
  4105180
370
    25
100
AcDb2dPolyline
 66
     1
 10
0.0
 20
0.0
 30
0.0
  0
VERTEX
  5
138
330
137
100
AcDbEntity
  8
BEM
 62
   153
420
  4105180
370
    25
100
AcDbVertex
100
AcDb2dVertex
 10
16.6039799958489
 20
196.2617380485015
 30
0.0
  0
VERTEX
  5
139
330
137
100
AcDbEntity
  8
BEM
 62
   153
420
  4105180
370
    25
100
AcDbVertex
100
AcDb2dVertex
 10
16.6039799958489
 20
217.4943736179229
 30
0.0
  0
SEQEND
  5
13A
330
137
100
AcDbEntity
  8
BEM
 62
   153
420
  4105180
370
    25
  0
ENDBLK
  5
136
330
133
100
AcDbEntity
  8
0
100
AcDbBlockEnd
  0
BLOCK
  5
13D
330
13B
100
AcDbEntity
  8
0
100
AcDbBlockBegin
  2
block 31
 70
     0
 10
0.0
 20
0.0
 30
0.0
  3
block 31
  1

  0
POLYLINE
  5
13F
330
13B
100
AcDbEntity
  8
BEM
 62
   153
420
  4105180
370
    25
100
AcDb2dPolyline
 66
     1
 10
0.0
 20
0.0
 30
0.0
  0
VERTEX
  5
140
330
13F
100
AcDbEntity
  8
BEM
 62
   153
420
  4105180
370
    25
100
AcDbVertex
100
AcDb2dVertex
 10
-4.843815276566706
 20
217.4943736179229
 30
0.0
  0
VERTEX
  5
141
330
13F
100
AcDbEntity
  8
BEM
 62
   153
420
  4105180
370
    25
100
AcDbVertex
100
AcDb2dVertex
 10
13.30219166334124
 20
217.4943736179229
 30
0.0
  0
SEQEND
  5
142
330
13F
100
AcDbEntity
  8
BEM
 62
   153
420
  4105180
370
    25
  0
ENDBLK
  5
13E
330
13B
100
AcDbEntity
  8
0
100
AcDbBlockEnd
  0
BLOCK
  5
145
330
143
100
AcDbEntity
  8
0
100
AcDbBlockBegin
  2
block 32
 70
     0
 10
0.0
 20
0.0
 30
0.0
  3
block 32
  1

  0
POLYLINE
  5
147
330
143
100
AcDbEntity
  8
BEM
370
     0
100
AcDb2dPolyline
 66
     1
 10
0.0
 20
0.0
 30
0.0
  0
VERTEX
  5
148
330
147
100
AcDbEntity
  8
BEM
370
     0
100
AcDbVertex
100
AcDb2dVertex
 10
-4.843815276566706
 20
218.0445658261086
 30
0.0
  0
VERTEX
  5
149
330
147
100
AcDbEntity
  8
BEM
370
     0
100
AcDbVertex
100
AcDb2dVertex
 10
-4.843815276566706
 20
216.9440402986298
 30
0.0
  0
VERTEX
  5
14A
330
147
100
AcDbEntity
  8
BEM
370
     0
100
AcDbVertex
100
AcDb2dVertex
 10
-8.14574472018573
 20
217.4943736179229
 30
0.0
  0
VERTEX
  5
14B
330
147
100
AcDbEntity
  8
BEM
370
     0
100
AcDbVertex
100
AcDb2dVertex
 10
-4.843815276566706
 20
218.0445658261086
 30
0.0
  0
SEQEND
  5
14D
330
147
100
AcDbEntity
  8
BEM
370
     0
  0
HATCH
  5
14C
330
143
100
AcDbEntity
  8
BEM
 62
   153
420
  4105180
100
AcDbHatch
 10
0.0
 20
0.0
 30
0.0
210
0.0
220
0.0
230
1.0
  2
SOLID
 70
     1
 71
     0
 91
        1
 92
        1
 93
        3
 72
     1
 10
-4.843815276566706
 20
218.0445658261086
 11
-4.843815276566706
 21
216.9440402986298
 72
     1
 10
-4.843815276566706
 20
216.9440402986298
 11
-8.14574472018573
 21
217.4943736179229
 72
     1
 10
-8.14574472018573
 20
217.4943736179229
 11
-4.843815276566706
 21
218.0445658261086
 97
        0
 75
     2
 76
     1
 98
        0
  0
ENDBLK
  5
146
330
143
100
AcDbEntity
  8
0
100
AcDbBlockEnd
  0
BLOCK
  5
150
330
14E
100
AcDbEntity
  8
0
100
AcDbBlockBegin
  2
block 33
 70
     0
 10
0.0
 20
0.0
 30
0.0
  3
block 33
  1

  0
POLYLINE
  5
152
330
14E
100
AcDbEntity
  8
BEM
370
     0
100
AcDb2dPolyline
 66
     1
 10
0.0
 20
0.0
 30
0.0
  0
VERTEX
  5
153
330
152
100
AcDbEntity
  8
BEM
370
     0
100
AcDbVertex
100
AcDb2dVertex
 10
13.30219166334124
 20
218.0445658261086
 30
0.0
  0
VERTEX
  5
154
330
152
100
AcDbEntity
  8
BEM
370
     0
100
AcDbVertex
100
AcDb2dVertex
 10
13.30219166334124
 20
216.9440402986298
 30
0.0
  0
VERTEX
  5
155
330
152
100
AcDbEntity
  8
BEM
370
     0
100
AcDbVertex
100
AcDb2dVertex
 10
16.6039799958489
 20
217.4943736179229
 30
0.0
  0
VERTEX
  5
156
330
152
100
AcDbEntity
  8
BEM
370
     0
100
AcDbVertex
100
AcDb2dVertex
 10
13.30219166334124
 20
218.0445658261086
 30
0.0
  0
SEQEND
  5
158
330
152
100
AcDbEntity
  8
BEM
370
     0
  0
HATCH
  5
157
330
14E
100
AcDbEntity
  8
BEM
 62
   153
420
  4105180
100
AcDbHatch
 10
0.0
 20
0.0
 30
0.0
210
0.0
220
0.0
230
1.0
  2
SOLID
 70
     1
 71
     0
 91
        1
 92
        1
 93
        3
 72
     1
 10
13.30219166334124
 20
218.0445658261086
 11
13.30219166334124
 21
216.9440402986298
 72
     1
 10
13.30219166334124
 20
216.9440402986298
 11
16.6039799958489
 21
217.4943736179229
 72
     1
 10
16.6039799958489
 20
217.4943736179229
 11
13.30219166334124
 21
218.0445658261086
 97
        0
 75
     2
 76
     1
 98
        0
  0
ENDBLK
  5
151
330
14E
100
AcDbEntity
  8
0
100
AcDbBlockEnd
  0
BLOCK
  5
15B
330
159
100
AcDbEntity
  8
0
100
AcDbBlockBegin
  2
block 34
 70
     0
 10
0.0
 20
0.0
 30
0.0
  3
block 34
  1

  0
POLYLINE
  5
15D
330
159
100
AcDbEntity
  8
BEM
370
     0
100
AcDb2dPolyline
 66
     1
 10
0.0
 20
0.0
 30
0.0
  0
VERTEX
  5
15E
330
15D
100
AcDbEntity
  8
BEM
370
     0
100
AcDbVertex
100
AcDb2dVertex
 10
-8.14574472018573
 20
203.6991805046308
 30
0.0
  0
VERTEX
  5
15F
330
15D
100
AcDbEntity
  8
BEM
370
     0
100
AcDbVertex
100
AcDb2dVertex
 10
-8.14574472018573
 20
203.6991805046308
 30
0.0
  0
SEQEND
  5
160
330
15D
100
AcDbEntity
  8
BEM
370
     0
  0
ENDBLK
  5
15C
330
159
100
AcDbEntity
  8
0
100
AcDbBlockEnd
  0
BLOCK
  5
163
330
161
100
AcDbEntity
  8
0
100
AcDbBlockBegin
  2
block 35
 70
     0
 10
0.0
 20
0.0
 30
0.0
  3
block 35
  1

  0
POLYLINE
  5
165
330
161
100
AcDbEntity
  8
BEM
370
     0
100
AcDb2dPolyline
 66
     1
 10
0.0
 20
0.0
 30
0.0
  0
VERTEX
  5
166
330
165
100
AcDbEntity
  8
BEM
370
     0
100
AcDbVertex
100
AcDb2dVertex
 10
16.6039799958489
 20
196.1992258278741
 30
0.0
  0
VERTEX
  5
167
330
165
100
AcDbEntity
  8
BEM
370
     0
100
AcDbVertex
100
AcDb2dVertex
 10
16.6039799958489
 20
196.1992258278741
 30
0.0
  0
SEQEND
  5
168
330
165
100
AcDbEntity
  8
BEM
370
     0
  0
ENDBLK
  5
164
330
161
100
AcDbEntity
  8
0
100
AcDbBlockEnd
  0
BLOCK
  5
16B
330
169
100
AcDbEntity
  8
0
100
AcDbBlockBegin
  2
block 36
 70
     0
 10
0.0
 20
0.0
 30
0.0
  3
block 36
  1

  0
POLYLINE
  5
16D
330
169
100
AcDbEntity
  8
BEM
370
     0
100
AcDb2dPolyline
 66
     1
 10
0.0
 20
0.0
 30
0.0
  0
VERTEX
  5
16E
330
16D
100
AcDbEntity
  8
BEM
370
     0
100
AcDbVertex
100
AcDb2dVertex
 10
16.6039799958489
 20
217.4943736179229
 30
0.0
  0
VERTEX
  5
16F
330
16D
100
AcDbEntity
  8
BEM
370
     0
100
AcDbVertex
100
AcDb2dVertex
 10
16.6039799958489
 20
217.4943736179229
 30
0.0
  0
SEQEND
  5
170
330
16D
100
AcDbEntity
  8
BEM
370
     0
  0
ENDBLK
  5
16C
330
169
100
AcDbEntity
  8
0
100
AcDbBlockEnd
  0
BLOCK
  5
173
330
171
100
AcDbEntity
  8
0
100
AcDbBlockBegin
  2
block 37
 70
     0
 10
0.0
 20
0.0
 30
0.0
  3
block 37
  1

  0
POLYLINE
  5
175
330
171
100
AcDbEntity
  8
BEM
370
     0
100
AcDb2dPolyline
 66
     1
 10
0.0
 20
0.0
 30
0.0
  0
VERTEX
  5
176
330
175
100
AcDbEntity
  8
BEM
370
     0
100
AcDbVertex
100
AcDb2dVertex
 10
-8.14574472018573
 20
203.7617228571609
 30
0.0
  0
VERTEX
  5
177
330
175
100
AcDbEntity
  8
BEM
370
     0
100
AcDbVertex
100
AcDb2dVertex
 10
-8.14574472018573
 20
225.6992084086002
 30
0.0
  0
SEQEND
  5
178
330
175
100
AcDbEntity
  8
BEM
370
     0
  0
ENDBLK
  5
174
330
171
100
AcDbEntity
  8
0
100
AcDbBlockEnd
  0
BLOCK
  5
17B
330
179
100
AcDbEntity
  8
0
100
AcDbBlockBegin
  2
block 38
 70
     0
 10
0.0
 20
0.0
 30
0.0
  3
block 38
  1

  0
POLYLINE
  5
17D
330
179
100
AcDbEntity
  8
BEM
 62
   153
420
  4105180
370
    25
100
AcDb2dPolyline
 66
     1
 10
0.0
 20
0.0
 30
0.0
  0
VERTEX
  5
17E
330
17D
100
AcDbEntity
  8
BEM
 62
   153
420
  4105180
370
    25
100
AcDbVertex
100
AcDb2dVertex
 10
216.6041741961893
 20
196.2617380485015
 30
0.0
  0
VERTEX
  5
17F
330
17D
100
AcDbEntity
  8
BEM
 62
   153
420
  4105180
370
    25
100
AcDbVertex
100
AcDb2dVertex
 10
216.6041741961893
 20
225.6992084086002
 30
0.0
  0
SEQEND
  5
180
330
17D
100
AcDbEntity
  8
BEM
 62
   153
420
  4105180
370
    25
  0
ENDBLK
  5
17C
330
179
100
AcDbEntity
  8
0
100
AcDbBlockEnd
  0
BLOCK
  5
183
330
181
100
AcDbEntity
  8
0
100
AcDbBlockBegin
  2
block 39
 70
     0
 10
0.0
 20
0.0
 30
0.0
  3
block 39
  1

  0
POLYLINE
  5
185
330
181
100
AcDbEntity
  8
BEM
 62
   153
420
  4105180
370
    25
100
AcDb2dPolyline
 66
     1
 10
0.0
 20
0.0
 30
0.0
  0
VERTEX
  5
186
330
185
100
AcDbEntity
  8
BEM
 62
   153
420
  4105180
370
    25
100
AcDbVertex
100
AcDb2dVertex
 10
-4.843815276566706
 20
225.6992084086002
 30
0.0
  0
VERTEX
  5
187
330
185
100
AcDbEntity
  8
BEM
 62
   153
420
  4105180
370
    25
100
AcDbVertex
100
AcDb2dVertex
 10
213.3023859470917
 20
225.6992084086002
 30
0.0
  0
SEQEND
  5
188
330
185
100
AcDbEntity
  8
BEM
 62
   153
420
  4105180
370
    25
  0
ENDBLK
  5
184
330
181
100
AcDbEntity
  8
0
100
AcDbBlockEnd
  0
BLOCK
  5
18B
330
189
100
AcDbEntity
  8
0
100
AcDbBlockBegin
  2
block 40
 70
     0
 10
0.0
 20
0.0
 30
0.0
  3
block 40
  1

  0
POLYLINE
  5
18D
330
189
100
AcDbEntity
  8
BEM
370
     0
100
AcDb2dPolyline
 66
     1
 10
0.0
 20
0.0
 30
0.0
  0
VERTEX
  5
18E
330
18D
100
AcDbEntity
  8
BEM
370
     0
100
AcDbVertex
100
AcDb2dVertex
 10
-4.843815276566706
 20
226.2495770056702
 30
0.0
  0
VERTEX
  5
18F
330
18D
100
AcDbEntity
  8
BEM
370
     0
100
AcDbVertex
100
AcDb2dVertex
 10
-4.843815276566706
 20
225.148875089307
 30
0.0
  0
VERTEX
  5
190
330
18D
100
AcDbEntity
  8
BEM
370
     0
100
AcDbVertex
100
AcDb2dVertex
 10
-8.14574472018573
 20
225.6992084086002
 30
0.0
  0
VERTEX
  5
191
330
18D
100
AcDbEntity
  8
BEM
370
     0
100
AcDbVertex
100
AcDb2dVertex
 10
-4.843815276566706
 20
226.2495770056702
 30
0.0
  0
SEQEND
  5
193
330
18D
100
AcDbEntity
  8
BEM
370
     0
  0
HATCH
  5
192
330
189
100
AcDbEntity
  8
BEM
 62
   153
420
  4105180
100
AcDbHatch
 10
0.0
 20
0.0
 30
0.0
210
0.0
220
0.0
230
1.0
  2
SOLID
 70
     1
 71
     0
 91
        1
 92
        1
 93
        3
 72
     1
 10
-4.843815276566706
 20
226.2495770056702
 11
-4.843815276566706
 21
225.148875089307
 72
     1
 10
-4.843815276566706
 20
225.148875089307
 11
-8.14574472018573
 21
225.6992084086002
 72
     1
 10
-8.14574472018573
 20
225.6992084086002
 11
-4.843815276566706
 21
226.2495770056702
 97
        0
 75
     2
 76
     1
 98
        0
  0
ENDBLK
  5
18C
330
189
100
AcDbEntity
  8
0
100
AcDbBlockEnd
  0
BLOCK
  5
196
330
194
100
AcDbEntity
  8
0
100
AcDbBlockBegin
  2
block 41
 70
     0
 10
0.0
 20
0.0
 30
0.0
  3
block 41
  1

  0
POLYLINE
  5
198
330
194
100
AcDbEntity
  8
BEM
370
     0
100
AcDb2dPolyline
 66
     1
 10
0.0
 20
0.0
 30
0.0
  0
VERTEX
  5
199
330
198
100
AcDbEntity
  8
BEM
370
     0
100
AcDbVertex
100
AcDb2dVertex
 10
213.3023859470917
 20
226.2495770056702
 30
0.0
  0
VERTEX
  5
19A
330
198
100
AcDbEntity
  8
BEM
370
     0
100
AcDbVertex
100
AcDb2dVertex
 10
213.3023859470917
 20
225.148875089307
 30
0.0
  0
VERTEX
  5
19B
330
198
100
AcDbEntity
  8
BEM
370
     0
100
AcDbVertex
100
AcDb2dVertex
 10
216.6041741961893
 20
225.6992084086002
 30
0.0
  0
VERTEX
  5
19C
330
198
100
AcDbEntity
  8
BEM
370
     0
100
AcDbVertex
100
AcDb2dVertex
 10
213.3023859470917
 20
226.2495770056702
 30
0.0
  0
SEQEND
  5
19E
330
198
100
AcDbEntity
  8
BEM
370
     0
  0
HATCH
  5
19D
330
194
100
AcDbEntity
  8
BEM
 62
   153
420
  4105180
100
AcDbHatch
 10
0.0
 20
0.0
 30
0.0
210
0.0
220
0.0
230
1.0
  2
SOLID
 70
     1
 71
     0
 91
        1
 92
        1
 93
        3
 72
     1
 10
213.3023859470917
 20
226.2495770056702
 11
213.3023859470917
 21
225.148875089307
 72
     1
 10
213.3023859470917
 20
225.148875089307
 11
216.6041741961893
 21
225.6992084086002
 72
     1
 10
216.6041741961893
 20
225.6992084086002
 11
213.3023859470917
 21
226.2495770056702
 97
        0
 75
     2
 76
     1
 98
        0
  0
ENDBLK
  5
197
330
194
100
AcDbEntity
  8
0
100
AcDbBlockEnd
  0
BLOCK
  5
1A1
330
19F
100
AcDbEntity
  8
0
100
AcDbBlockBegin
  2
block 42
 70
     0
 10
0.0
 20
0.0
 30
0.0
  3
block 42
  1

  0
POLYLINE
  5
1A3
330
19F
100
AcDbEntity
  8
BEM
370
     0
100
AcDb2dPolyline
 66
     1
 10
0.0
 20
0.0
 30
0.0
  0
VERTEX
  5
1A4
330
1A3
100
AcDbEntity
  8
BEM
370
     0
100
AcDbVertex
100
AcDb2dVertex
 10
-8.14574472018573
 20
203.6991805046308
 30
0.0
  0
VERTEX
  5
1A5
330
1A3
100
AcDbEntity
  8
BEM
370
     0
100
AcDbVertex
100
AcDb2dVertex
 10
-8.14574472018573
 20
203.6991805046308
 30
0.0
  0
SEQEND
  5
1A6
330
1A3
100
AcDbEntity
  8
BEM
370
     0
  0
ENDBLK
  5
1A2
330
19F
100
AcDbEntity
  8
0
100
AcDbBlockEnd
  0
BLOCK
  5
1A9
330
1A7
100
AcDbEntity
  8
0
100
AcDbBlockBegin
  2
block 43
 70
     0
 10
0.0
 20
0.0
 30
0.0
  3
block 43
  1

  0
POLYLINE
  5
1AB
330
1A7
100
AcDbEntity
  8
BEM
370
     0
100
AcDb2dPolyline
 66
     1
 10
0.0
 20
0.0
 30
0.0
  0
VERTEX
  5
1AC
330
1AB
100
AcDbEntity
  8
BEM
370
     0
100
AcDbVertex
100
AcDb2dVertex
 10
216.6041741961893
 20
196.1992258278741
 30
0.0
  0
VERTEX
  5
1AD
330
1AB
100
AcDbEntity
  8
BEM
370
     0
100
AcDbVertex
100
AcDb2dVertex
 10
216.6041741961893
 20
196.1992258278741
 30
0.0
  0
SEQEND
  5
1AE
330
1AB
100
AcDbEntity
  8
BEM
370
     0
  0
ENDBLK
  5
1AA
330
1A7
100
AcDbEntity
  8
0
100
AcDbBlockEnd
  0
BLOCK
  5
1B1
330
1AF
100
AcDbEntity
  8
0
100
AcDbBlockBegin
  2
block 44
 70
     0
 10
0.0
 20
0.0
 30
0.0
  3
block 44
  1

  0
POLYLINE
  5
1B3
330
1AF
100
AcDbEntity
  8
BEM
370
     0
100
AcDb2dPolyline
 66
     1
 10
0.0
 20
0.0
 30
0.0
  0
VERTEX
  5
1B4
330
1B3
100
AcDbEntity
  8
BEM
370
     0
100
AcDbVertex
100
AcDb2dVertex
 10
216.6041741961893
 20
225.6992084086002
 30
0.0
  0
VERTEX
  5
1B5
330
1B3
100
AcDbEntity
  8
BEM
370
     0
100
AcDbVertex
100
AcDb2dVertex
 10
216.6041741961893
 20
225.6992084086002
 30
0.0
  0
SEQEND
  5
1B6
330
1B3
100
AcDbEntity
  8
BEM
370
     0
  0
ENDBLK
  5
1B2
330
1AF
100
AcDbEntity
  8
0
100
AcDbBlockEnd
  0
BLOCK
  5
1B9
330
1B7
100
AcDbEntity
  8
0
100
AcDbBlockBegin
  2
block 45
 70
     0
 10
0.0
 20
0.0
 30
0.0
  3
block 45
  1

  0
POLYLINE
  5
1BB
330
1B7
100
AcDbEntity
  8
BEM
 62
   153
420
  4105180
370
    25
100
AcDb2dPolyline
 66
     1
 10
0.0
 20
0.0
 30
0.0
  0
VERTEX
  5
1BC
330
1BB
100
AcDbEntity
  8
BEM
 62
   153
420
  4105180
370
    25
100
AcDbVertex
100
AcDb2dVertex
 10
22.85407332761976
 20
197.6992016229398
 30
0.0
  0
VERTEX
  5
1BD
330
1BB
100
AcDbEntity
  8
BEM
 62
   153
420
  4105180
370
    25
100
AcDbVertex
100
AcDb2dVertex
 10
22.85407332761976
 20
179.1763226510534
 30
0.0
  0
SEQEND
  5
1BE
330
1BB
100
AcDbEntity
  8
BEM
 62
   153
420
  4105180
370
    25
  0
ENDBLK
  5
1BA
330
1B7
100
AcDbEntity
  8
0
100
AcDbBlockEnd
  0
BLOCK
  5
1C1
330
1BF
100
AcDbEntity
  8
0
100
AcDbBlockBegin
  2
block 46
 70
     0
 10
0.0
 20
0.0
 30
0.0
  3
block 46
  1

  0
POLYLINE
  5
1C3
330
1BF
100
AcDbEntity
  8
BEM
 62
   153
420
  4105180
370
    25
100
AcDb2dPolyline
 66
     1
 10
0.0
 20
0.0
 30
0.0
  0
VERTEX
  5
1C4
330
1C3
100
AcDbEntity
  8
BEM
 62
   153
420
  4105180
370
    25
100
AcDbVertex
100
AcDb2dVertex
 10
35.35425909803771
 20
197.6992016229398
 30
0.0
  0
VERTEX
  5
1C5
330
1C3
100
AcDbEntity
  8
BEM
 62
   153
420
  4105180
370
    25
100
AcDbVertex
100
AcDb2dVertex
 10
35.35425909803771
 20
179.1763226510534
 30
0.0
  0
SEQEND
  5
1C6
330
1C3
100
AcDbEntity
  8
BEM
 62
   153
420
  4105180
370
    25
  0
ENDBLK
  5
1C2
330
1BF
100
AcDbEntity
  8
0
100
AcDbBlockEnd
  0
BLOCK
  5
1C9
330
1C7
100
AcDbEntity
  8
0
100
AcDbBlockBegin
  2
block 47
 70
     0
 10
0.0
 20
0.0
 30
0.0
  3
block 47
  1

  0
POLYLINE
  5
1CB
330
1C7
100
AcDbEntity
  8
BEM
 62
   153
420
  4105180
370
    25
100
AcDb2dPolyline
 66
     1
 10
0.0
 20
0.0
 30
0.0
  0
VERTEX
  5
1CC
330
1CB
100
AcDbEntity
  8
BEM
 62
   153
420
  4105180
370
    25
100
AcDbVertex
100
AcDb2dVertex
 10
26.15621443790551
 20
180.1762359588768
 30
0.0
  0
VERTEX
  5
1CD
330
1CB
100
AcDbEntity
  8
BEM
 62
   153
420
  4105180
370
    25
100
AcDbVertex
100
AcDb2dVertex
 10
32.0524716586535
 20
180.1762359588768
 30
0.0
  0
SEQEND
  5
1CE
330
1CB
100
AcDbEntity
  8
BEM
 62
   153
420
  4105180
370
    25
  0
ENDBLK
  5
1CA
330
1C7
100
AcDbEntity
  8
0
100
AcDbBlockEnd
  0
BLOCK
  5
1D1
330
1CF
100
AcDbEntity
  8
0
100
AcDbBlockBegin
  2
block 48
 70
     0
 10
0.0
 20
0.0
 30
0.0
  3
block 48
  1

  0
POLYLINE
  5
1D3
330
1CF
100
AcDbEntity
  8
BEM
 62
   153
420
  4105180
370
    25
100
AcDb2dPolyline
 66
     1
 10
0.0
 20
0.0
 30
0.0
  0
VERTEX
  5
1D4
330
1D3
100
AcDbEntity
  8
BEM
 62
   153
420
  4105180
370
    25
100
AcDbVertex
100
AcDb2dVertex
 10
35.35425909803771
 20
180.1762359588768
 30
0.0
  0
VERTEX
  5
1D5
330
1D3
100
AcDbEntity
  8
BEM
 62
   153
420
  4105180
370
    25
100
AcDbVertex
100
AcDb2dVertex
 10
54.53757333085281
 20
180.1762359588768
 30
0.0
  0
SEQEND
  5
1D6
330
1D3
100
AcDbEntity
  8
BEM
 62
   153
420
  4105180
370
    25
  0
ENDBLK
  5
1D2
330
1CF
100
AcDbEntity
  8
0
100
AcDbBlockEnd
  0
BLOCK
  5
1D9
330
1D7
100
AcDbEntity
  8
0
100
AcDbBlockBegin
  2
block 49
 70
     0
 10
0.0
 20
0.0
 30
0.0
  3
block 49
  1

  0
POLYLINE
  5
1DB
330
1D7
100
AcDbEntity
  8
BEM
370
     0
100
AcDb2dPolyline
 66
     1
 10
0.0
 20
0.0
 30
0.0
  0
VERTEX
  5
1DC
330
1DB
100
AcDbEntity
  8
BEM
370
     0
100
AcDbVertex
100
AcDb2dVertex
 10
26.15621443790551
 20
180.7266045559469
 30
0.0
  0
VERTEX
  5
1DD
330
1DB
100
AcDbEntity
  8
BEM
370
     0
100
AcDbVertex
100
AcDb2dVertex
 10
26.15621443790551
 20
179.6259026395837
 30
0.0
  0
VERTEX
  5
1DE
330
1DB
100
AcDbEntity
  8
BEM
370
     0
100
AcDbVertex
100
AcDb2dVertex
 10
22.85407332761976
 20
180.1762359588768
 30
0.0
  0
VERTEX
  5
1DF
330
1DB
100
AcDbEntity
  8
BEM
370
     0
100
AcDbVertex
100
AcDb2dVertex
 10
26.15621443790551
 20
180.7266045559469
 30
0.0
  0
SEQEND
  5
1E1
330
1DB
100
AcDbEntity
  8
BEM
370
     0
  0
HATCH
  5
1E0
330
1D7
100
AcDbEntity
  8
BEM
 62
   153
420
  4105180
100
AcDbHatch
 10
0.0
 20
0.0
 30
0.0
210
0.0
220
0.0
230
1.0
  2
SOLID
 70
     1
 71
     0
 91
        1
 92
        1
 93
        3
 72
     1
 10
26.15621443790551
 20
180.7266045559469
 11
26.15621443790551
 21
179.6259026395837
 72
     1
 10
26.15621443790551
 20
179.6259026395837
 11
22.85407332761976
 21
180.1762359588768
 72
     1
 10
22.85407332761976
 20
180.1762359588768
 11
26.15621443790551
 21
180.7266045559469
 97
        0
 75
     2
 76
     1
 98
        0
  0
ENDBLK
  5
1DA
330
1D7
100
AcDbEntity
  8
0
100
AcDbBlockEnd
  0
BLOCK
  5
1E4
330
1E2
100
AcDbEntity
  8
0
100
AcDbBlockBegin
  2
block 50
 70
     0
 10
0.0
 20
0.0
 30
0.0
  3
block 50
  1

  0
POLYLINE
  5
1E6
330
1E2
100
AcDbEntity
  8
BEM
370
     0
100
AcDb2dPolyline
 66
     1
 10
0.0
 20
0.0
 30
0.0
  0
VERTEX
  5
1E7
330
1E6
100
AcDbEntity
  8
BEM
370
     0
100
AcDbVertex
100
AcDb2dVertex
 10
32.0524716586535
 20
180.7266045559469
 30
0.0
  0
VERTEX
  5
1E8
330
1E6
100
AcDbEntity
  8
BEM
370
     0
100
AcDbVertex
100
AcDb2dVertex
 10
32.0524716586535
 20
179.6259026395837
 30
0.0
  0
VERTEX
  5
1E9
330
1E6
100
AcDbEntity
  8
BEM
370
     0
100
AcDbVertex
100
AcDb2dVertex
 10
35.35425909803771
 20
180.1762359588768
 30
0.0
  0
VERTEX
  5
1EA
330
1E6
100
AcDbEntity
  8
BEM
370
     0
100
AcDbVertex
100
AcDb2dVertex
 10
32.0524716586535
 20
180.7266045559469
 30
0.0
  0
SEQEND
  5
1EC
330
1E6
100
AcDbEntity
  8
BEM
370
     0
  0
HATCH
  5
1EB
330
1E2
100
AcDbEntity
  8
BEM
 62
   153
420
  4105180
100
AcDbHatch
 10
0.0
 20
0.0
 30
0.0
210
0.0
220
0.0
230
1.0
  2
SOLID
 70
     1
 71
     0
 91
        1
 92
        1
 93
        3
 72
     1
 10
32.0524716586535
 20
180.7266045559469
 11
32.0524716586535
 21
179.6259026395837
 72
     1
 10
32.0524716586535
 20
179.6259026395837
 11
35.35425909803771
 21
180.1762359588768
 72
     1
 10
35.35425909803771
 20
180.1762359588768
 11
32.0524716586535
 21
180.7266045559469
 97
        0
 75
     2
 76
     1
 98
        0
  0
ENDBLK
  5
1E5
330
1E2
100
AcDbEntity
  8
0
100
AcDbBlockEnd
  0
BLOCK
  5
1EF
330
1ED
100
AcDbEntity
  8
0
100
AcDbBlockBegin
  2
block 51
 70
     0
 10
0.0
 20
0.0
 30
0.0
  3
block 51
  1

  0
POLYLINE
  5
1F1
330
1ED
100
AcDbEntity
  8
BEM
370
     0
100
AcDb2dPolyline
 66
     1
 10
0.0
 20
0.0
 30
0.0
  0
VERTEX
  5
1F2
330
1F1
100
AcDbEntity
  8
BEM
370
     0
100
AcDbVertex
100
AcDb2dVertex
 10
22.85407332761976
 20
198.6991502085401
 30
0.0
  0
VERTEX
  5
1F3
330
1F1
100
AcDbEntity
  8
BEM
370
     0
100
AcDbVertex
100
AcDb2dVertex
 10
22.85407332761976
 20
198.6991502085401
 30
0.0
  0
SEQEND
  5
1F4
330
1F1
100
AcDbEntity
  8
BEM
370
     0
  0
ENDBLK
  5
1F0
330
1ED
100
AcDbEntity
  8
0
100
AcDbBlockEnd
  0
BLOCK
  5
1F7
330
1F5
100
AcDbEntity
  8
0
100
AcDbBlockBegin
  2
block 52
 70
     0
 10
0.0
 20
0.0
 30
0.0
  3
block 52
  1

  0
POLYLINE
  5
1F9
330
1F5
100
AcDbEntity
  8
BEM
370
     0
100
AcDb2dPolyline
 66
     1
 10
0.0
 20
0.0
 30
0.0
  0
VERTEX
  5
1FA
330
1F9
100
AcDbEntity
  8
BEM
370
     0
100
AcDbVertex
100
AcDb2dVertex
 10
35.35425909803771
 20
198.6991502085401
 30
0.0
  0
VERTEX
  5
1FB
330
1F9
100
AcDbEntity
  8
BEM
370
     0
100
AcDbVertex
100
AcDb2dVertex
 10
35.35425909803771
 20
198.6991502085401
 30
0.0
  0
SEQEND
  5
1FC
330
1F9
100
AcDbEntity
  8
BEM
370
     0
  0
ENDBLK
  5
1F8
330
1F5
100
AcDbEntity
  8
0
100
AcDbBlockEnd
  0
BLOCK
  5
1FF
330
1FD
100
AcDbEntity
  8
0
100
AcDbBlockBegin
  2
block 53
 70
     0
 10
0.0
 20
0.0
 30
0.0
  3
block 53
  1

  0
POLYLINE
  5
201
330
1FD
100
AcDbEntity
  8
BEM
370
     0
100
AcDb2dPolyline
 66
     1
 10
0.0
 20
0.0
 30
0.0
  0
VERTEX
  5
202
330
201
100
AcDbEntity
  8
BEM
370
     0
100
AcDbVertex
100
AcDb2dVertex
 10
35.35425909803771
 20
180.1762359588768
 30
0.0
  0
VERTEX
  5
203
330
201
100
AcDbEntity
  8
BEM
370
     0
100
AcDbVertex
100
AcDb2dVertex
 10
35.35425909803771
 20
180.1762359588768
 30
0.0
  0
SEQEND
  5
204
330
201
100
AcDbEntity
  8
BEM
370
     0
  0
ENDBLK
  5
200
330
1FD
100
AcDbEntity
  8
0
100
AcDbBlockEnd
  0
BLOCK
  5
207
330
205
100
AcDbEntity
  8
0
100
AcDbBlockBegin
  2
block 54
 70
     0
 10
0.0
 20
0.0
 30
0.0
  3
block 54
  1

  0
POLYLINE
  5
209
330
205
100
AcDbEntity
  8
BEM
 62
   153
420
  4105180
370
    25
100
AcDb2dPolyline
 66
     1
 10
0.0
 20
0.0
 30
0.0
  0
VERTEX
  5
20A
330
209
100
AcDbEntity
  8
BEM
 62
   153
420
  4105180
370
    25
100
AcDbVertex
100
AcDb2dVertex
 10
226.9211953218691
 20
215.515360890634
 30
0.0
  0
VERTEX
  5
20B
330
209
100
AcDbEntity
  8
BEM
 62
   153
420
  4105180
370
    25
100
AcDbVertex
100
AcDb2dVertex
 10
219.102193576904
 20
200.8759301530058
 30
0.0
  0
SEQEND
  5
20C
330
209
100
AcDbEntity
  8
BEM
 62
   153
420
  4105180
370
    25
  0
ENDBLK
  5
208
330
205
100
AcDbEntity
  8
0
100
AcDbBlockEnd
  0
BLOCK
  5
20F
330
20D
100
AcDbEntity
  8
0
100
AcDbBlockBegin
  2
block 55
 70
     0
 10
0.0
 20
0.0
 30
0.0
  3
block 55
  1

  0
POLYLINE
  5
211
330
20D
100
AcDbEntity
  8
BEM
370
     0
100
AcDb2dPolyline
 66
     1
 10
0.0
 20
0.0
 30
0.0
  0
VERTEX
  5
212
330
211
100
AcDbEntity
  8
BEM
370
     0
100
AcDbVertex
100
AcDb2dVertex
 10
218.6168066448428
 20
201.1351916163829
 30
0.0
  0
VERTEX
  5
213
330
211
100
AcDbEntity
  8
BEM
370
     0
100
AcDbVertex
100
AcDb2dVertex
 10
219.5876157867421
 20
200.6166737707312
 30
0.0
  0
VERTEX
  5
214
330
211
100
AcDbEntity
  8
BEM
370
     0
100
AcDbVertex
100
AcDb2dVertex
 10
217.5464138345021
 20
197.9632910606468
 30
0.0
  0
VERTEX
  5
215
330
211
100
AcDbEntity
  8
BEM
370
     0
100
AcDbVertex
100
AcDb2dVertex
 10
218.6168066448428
 20
201.1351916163829
 30
0.0
  0
SEQEND
  5
217
330
211
100
AcDbEntity
  8
BEM
370
     0
  0
HATCH
  5
216
330
20D
100
AcDbEntity
  8
BEM
 62
   153
420
  4105180
100
AcDbHatch
 10
0.0
 20
0.0
 30
0.0
210
0.0
220
0.0
230
1.0
  2
SOLID
 70
     1
 71
     0
 91
        1
 92
        1
 93
        3
 72
     1
 10
218.6168066448428
 20
201.1351916163829
 11
219.5876157867421
 21
200.6166737707312
 72
     1
 10
219.5876157867421
 20
200.6166737707312
 11
217.5464138345021
 21
197.9632910606468
 72
     1
 10
217.5464138345021
 20
197.9632910606468
 11
218.6168066448428
 21
201.1351916163829
 97
        0
 75
     2
 76
     1
 98
        0
  0
ENDBLK
  5
210
330
20D
100
AcDbEntity
  8
0
100
AcDbBlockEnd
  0
BLOCK
  5
21A
330
218
100
AcDbEntity
  8
0
100
AcDbBlockBegin
  2
block 56
 70
     0
 10
0.0
 20
0.0
 30
0.0
  3
block 56
  1

  0
POLYLINE
  5
21C
330
218
100
AcDbEntity
  8
BEM
 62
     5
420
      255
370
    25
100
AcDb2dPolyline
 66
     1
 10
0.0
 20
0.0
 30
0.0
  0
VERTEX
  5
21D
330
21C
100
AcDbEntity
  8
BEM
 62
     5
420
      255
370
    25
100
AcDbVertex
100
AcDb2dVertex
 10
216.5142511429279
 20
196.1992258278741
 30
0.0
  0
VERTEX
  5
21E
330
21C
100
AcDbEntity
  8
BEM
 62
     5
420
      255
370
    25
100
AcDbVertex
100
AcDb2dVertex
 10
216.6941027236043
 20
196.1992258278741
 30
0.0
  0
SEQEND
  5
21F
330
21C
100
AcDbEntity
  8
BEM
 62
     5
420
      255
370
    25
  0
ENDBLK
  5
21B
330
218
100
AcDbEntity
  8
0
100
AcDbBlockEnd
  0
BLOCK
  5
222
330
220
100
AcDbEntity
  8
0
100
AcDbBlockBegin
  2
block 57
 70
     0
 10
0.0
 20
0.0
 30
0.0
  3
block 57
  1

  0
POLYLINE
  5
224
330
220
100
AcDbEntity
  8
BEM
 62
     5
420
      255
370
    25
100
AcDb2dPolyline
 66
     1
 10
0.0
 20
0.0
 30
0.0
  0
VERTEX
  5
225
330
224
100
AcDbEntity
  8
BEM
 62
     5
420
      255
370
    25
100
AcDbVertex
100
AcDb2dVertex
 10
216.6041741961893
 20
196.1091263857282
 30
0.0
  0
VERTEX
  5
226
330
224
100
AcDbEntity
  8
BEM
 62
     5
420
      255
370
    25
100
AcDbVertex
100
AcDb2dVertex
 10
216.6041741961893
 20
196.2891488811355
 30
0.0
  0
SEQEND
  5
227
330
224
100
AcDbEntity
  8
BEM
 62
     5
420
      255
370
    25
  0
ENDBLK
  5
223
330
220
100
AcDbEntity
  8
0
100
AcDbBlockEnd
  0
BLOCK
  5
22A
330
228
100
AcDbEntity
  8
0
100
AcDbBlockBegin
  2
block 58
 70
     0
 10
0.0
 20
0.0
 30
0.0
  3
block 58
  1

  0
POLYLINE
  5
22C
330
228
100
AcDbEntity
  8
BEM
370
     0
100
AcDb2dPolyline
 66
     1
 10
0.0
 20
0.0
 30
0.0
  0
VERTEX
  5
22D
330
22C
100
AcDbEntity
  8
BEM
370
     0
100
AcDbVertex
100
AcDb2dVertex
 10
217.5464138345021
 20
197.9632910606468
 30
0.0
  0
VERTEX
  5
22E
330
22C
100
AcDbEntity
  8
BEM
370
     0
100
AcDbVertex
100
AcDb2dVertex
 10
217.5464138345021
 20
197.9632910606468
 30
0.0
  0
SEQEND
  5
22F
330
22C
100
AcDbEntity
  8
BEM
370
     0
  0
ENDBLK
  5
22B
330
228
100
AcDbEntity
  8
0
100
AcDbBlockEnd
  0
BLOCK
  5
232
330
230
100
AcDbEntity
  8
0
100
AcDbBlockBegin
  2
block 59
 70
     0
 10
0.0
 20
0.0
 30
0.0
  3
block 59
  1

  0
POLYLINE
  5
234
330
230
100
AcDbEntity
  8
BEM
370
     0
100
AcDb2dPolyline
 66
     1
 10
0.0
 20
0.0
 30
0.0
  0
VERTEX
  5
235
330
234
100
AcDbEntity
  8
BEM
370
     0
100
AcDbVertex
100
AcDb2dVertex
 10
215.6619400535611
 20
194.434984206217
 30
0.0
  0
VERTEX
  5
236
330
234
100
AcDbEntity
  8
BEM
370
     0
100
AcDbVertex
100
AcDb2dVertex
 10
215.6619400535611
 20
194.434984206217
 30
0.0
  0
SEQEND
  5
237
330
234
100
AcDbEntity
  8
BEM
370
     0
  0
ENDBLK
  5
233
330
230
100
AcDbEntity
  8
0
100
AcDbBlockEnd
  0
BLOCK
  5
258
330
256
100
AcDbEntity
  8
0
100
AcDbBlockBegin
  2
block 60
 70
     0
 10
0.0
 20
0.0
 30
0.0
  3
block 60
  1

  0
POLYLINE
  5
25A
330
256
100
AcDbEntity
  8
BEM
370
     0
100
AcDb2dPolyline
 66
     1
 10
0.0
 20
0.0
 30
0.0
  0
VERTEX
  5
25B
330
25A
100
AcDbEntity
  8
BEM
370
     0
100
AcDbVertex
100
AcDb2dVertex
 10
110.4490777501658
 20
103.0706926482253
 30
0.0
  0
VERTEX
  5
25C
330
25A
100
AcDbEntity
  8
BEM
370
     0
100
AcDbVertex
100
AcDb2dVertex
 10
110.4490777501658
 20
103.0706926482253
 30
0.0
  0
SEQEND
  5
25D
330
25A
100
AcDbEntity
  8
BEM
370
     0
  0
ENDBLK
  5
259
330
256
100
AcDbEntity
  8
0
100
AcDbBlockEnd
  0
BLOCK
  5
260
330
25E
100
AcDbEntity
  8
0
100
AcDbBlockBegin
  2
block 61
 70
     0
 10
0.0
 20
0.0
 30
0.0
  3
block 61
  1

  0
POLYLINE
  5
262
330
25E
100
AcDbEntity
  8
BEM
370
     0
100
AcDb2dPolyline
 66
     1
 10
0.0
 20
0.0
 30
0.0
  0
VERTEX
  5
263
330
262
100
AcDbEntity
  8
BEM
370
     0
100
AcDbVertex
100
AcDb2dVertex
 10
-8.14574472018573
 20
108.8205822237557
 30
0.0
  0
VERTEX
  5
264
330
262
100
AcDbEntity
  8
BEM
370
     0
100
AcDbVertex
100
AcDb2dVertex
 10
-8.14574472018573
 20
108.8205822237557
 30
0.0
  0
SEQEND
  5
265
330
262
100
AcDbEntity
  8
BEM
370
     0
  0
ENDBLK
  5
261
330
25E
100
AcDbEntity
  8
0
100
AcDbBlockEnd
  0
BLOCK
  5
274
330
272
100
AcDbEntity
  8
0
100
AcDbBlockBegin
  2
block 62
 70
     0
 10
0.0
 20
0.0
 30
0.0
  3
block 62
  1

  0
POLYLINE
  5
276
330
272
100
AcDbEntity
  8
0
 62
     7
420
 16777215
370
    15
100
AcDb2dPolyline
 66
     1
 10
0.0
 20
0.0
 30
0.0
  0
VERTEX
  5
277
330
276
100
AcDbEntity
  8
0
 62
     7
420
 16777215
370
    15
100
AcDbVertex
100
AcDb2dVertex
 10
113.5992746018411
 20
103.0706926482253
 30
0.0
  0
VERTEX
  5
278
330
276
100
AcDbEntity
  8
0
 62
     7
420
 16777215
370
    15
100
AcDbVertex
100
AcDb2dVertex
 10
113.5992746018411
 20
108.8205822237557
 30
0.0
  0
SEQEND
  5
279
330
276
100
AcDbEntity
  8
0
 62
     7
420
 16777215
370
    15
  0
ENDBLK
  5
275
330
272
100
AcDbEntity
  8
0
100
AcDbBlockEnd
  0
BLOCK
  5
27C
330
27A
100
AcDbEntity
  8
0
100
AcDbBlockBegin
  2
block 63
 70
     0
 10
0.0
 20
0.0
 30
0.0
  3
block 63
  1

  0
POLYLINE
  5
27E
330
27A
100
AcDbEntity
  8
0
 62
     7
420
 16777215
370
    15
100
AcDb2dPolyline
 66
     1
 10
0.0
 20
0.0
 30
0.0
  0
VERTEX
  5
27F
330
27E
100
AcDbEntity
  8
0
 62
     7
420
 16777215
370
    15
100
AcDbVertex
100
AcDb2dVertex
 10
110.4490777501658
 20
103.0706926482253
 30
0.0
  0
VERTEX
  5
280
330
27E
100
AcDbEntity
  8
0
 62
     7
420
 16777215
370
    15
100
AcDbVertex
100
AcDb2dVertex
 10
110.4490777501658
 20
108.8205822237557
 30
0.0
  0
SEQEND
  5
281
330
27E
100
AcDbEntity
  8
0
 62
     7
420
 16777215
370
    15
  0
ENDBLK
  5
27D
330
27A
100
AcDbEntity
  8
0
100
AcDbBlockEnd
  0
BLOCK
  5
284
330
282
100
AcDbEntity
  8
0
100
AcDbBlockBegin
  2
block 64
 70
     0
 10
0.0
 20
0.0
 30
0.0
  3
block 64
  1

  0
POLYLINE
  5
286
330
282
100
AcDbEntity
  8
0
 62
     7
420
 16777215
370
    15
100
AcDb2dPolyline
 66
     1
 10
0.0
 20
0.0
 30
0.0
  0
VERTEX
  5
287
330
286
100
AcDbEntity
  8
0
 62
     7
420
 16777215
370
    15
100
AcDbVertex
100
AcDb2dVertex
 10
114.2793243067138
 20
110.8207968949481
 30
0.0
  0
VERTEX
  5
288
330
286
100
AcDbEntity
  8
0
 62
     7
420
 16777215
370
    15
100
AcDbVertex
100
AcDb2dVertex
 10
114.2793243067138
 20
110.420817460708
 30
0.0
  0
SEQEND
  5
289
330
286
100
AcDbEntity
  8
0
 62
     7
420
 16777215
370
    15
  0
ENDBLK
  5
285
330
282
100
AcDbEntity
  8
0
100
AcDbBlockEnd
  0
BLOCK
  5
28C
330
28A
100
AcDbEntity
  8
0
100
AcDbBlockBegin
  2
block 65
 70
     0
 10
0.0
 20
0.0
 30
0.0
  3
block 65
  1

  0
POLYLINE
  5
28E
330
28A
100
AcDbEntity
  8
0
 62
     7
420
 16777215
370
    15
100
AcDb2dPolyline
 66
     1
 10
0.0
 20
0.0
 30
0.0
  0
VERTEX
  5
28F
330
28E
100
AcDbEntity
  8
0
 62
     7
420
 16777215
370
    15
100
AcDbVertex
100
AcDb2dVertex
 10
114.2793243067138
 20
108.8205822237557
 30
0.0
  0
VERTEX
  5
290
330
28E
100
AcDbEntity
  8
0
 62
     7
420
 16777215
370
    15
100
AcDbVertex
100
AcDb2dVertex
 10
114.2793243067138
 20
107.320571150913
 30
0.0
  0
SEQEND
  5
291
330
28E
100
AcDbEntity
  8
0
 62
     7
420
 16777215
370
    15
  0
ENDBLK
  5
28D
330
28A
100
AcDbEntity
  8
0
100
AcDbBlockEnd
  0
BLOCK
  5
294
330
292
100
AcDbEntity
  8
0
100
AcDbBlockBegin
  2
block 66
 70
     0
 10
0.0
 20
0.0
 30
0.0
  3
block 66
  1

  0
SPLINE
  5
296
330
292
100
AcDbEntity
  8
0
 62
     7
420
 16777215
370
    15
100
AcDbSpline
210
0.0
220
0.0
230
1.0
 70
     8
 71
     3
 72
     8
 73
     4
 74
     0
 42
0.0000000001
 43
0.0000000001
 12
1.0
 22
0.0
 32
0.0
 13
1.0
 23
0.0
 33
0.0
 40
0.0
 40
0.0
 40
0.0
 40
0.0
 40
1.0
 40
1.0
 40
1.0
 40
1.0
 10
114.4291843028905
 20
106.1706214580284
 30
0.0
 10
114.7054798513972
 20
106.1706214580284
 30
0.0
 10
114.9290704012485
 20
106.3945295078716
 30
0.0
 10
114.9290704012485
 20
106.6704749733322
 30
0.0
  0
ENDBLK
  5
295
330
292
100
AcDbEntity
  8
0
100
AcDbBlockEnd
  0
BLOCK
  5
299
330
297
100
AcDbEntity
  8
0
100
AcDbBlockBegin
  2
block 67
 70
     0
 10
0.0
 20
0.0
 30
0.0
  3
block 67
  1

  0
POLYLINE
  5
29B
330
297
100
AcDbEntity
  8
0
 62
     7
420
 16777215
370
    15
100
AcDb2dPolyline
 66
     1
 10
0.0
 20
0.0
 30
0.0
  0
VERTEX
  5
29C
330
29B
100
AcDbEntity
  8
0
 62
     7
420
 16777215
370
    15
100
AcDbVertex
100
AcDb2dVertex
 10
114.4291843028905
 20
106.1706214580284
 30
0.0
  0
VERTEX
  5
29D
330
29B
100
AcDbEntity
  8
0
 62
     7
420
 16777215
370
    15
100
AcDbVertex
100
AcDb2dVertex
 10
113.5992746018411
 20
106.1706214580284
 30
0.0
  0
SEQEND
  5
29E
330
29B
100
AcDbEntity
  8
0
 62
     7
420
 16777215
370
    15
  0
ENDBLK
  5
29A
330
297
100
AcDbEntity
  8
0
100
AcDbBlockEnd
  0
BLOCK
  5
2A1
330
29F
100
AcDbEntity
  8
0
100
AcDbBlockBegin
  2
block 68
 70
     0
 10
0.0
 20
0.0
 30
0.0
  3
block 68
  1

  0
POLYLINE
  5
2A3
330
29F
100
AcDbEntity
  8
0
 62
     7
420
 16777215
370
    15
100
AcDb2dPolyline
 66
     1
 10
0.0
 20
0.0
 30
0.0
  0
VERTEX
  5
2A4
330
2A3
100
AcDbEntity
  8
0
 62
     7
420
 16777215
370
    15
100
AcDbVertex
100
AcDb2dVertex
 10
113.779085430587
 20
106.8206850525551
 30
0.0
  0
VERTEX
  5
2A5
330
2A3
100
AcDbEntity
  8
0
 62
     7
420
 16777215
370
    15
100
AcDbVertex
100
AcDb2dVertex
 10
113.5992746018411
 20
106.8206850525551
 30
0.0
  0
SEQEND
  5
2A6
330
2A3
100
AcDbEntity
  8
0
 62
     7
420
 16777215
370
    15
  0
ENDBLK
  5
2A2
330
29F
100
AcDbEntity
  8
0
100
AcDbBlockEnd
  0
BLOCK
  5
2A9
330
2A7
100
AcDbEntity
  8
0
100
AcDbBlockBegin
  2
block 69
 70
     0
 10
0.0
 20
0.0
 30
0.0
  3
block 69
  1

  0
POLYLINE
  5
2AB
330
2A7
100
AcDbEntity
  8
0
 62
     7
420
 16777215
370
    15
100
AcDb2dPolyline
 66
     1
 10
0.0
 20
0.0
 30
0.0
  0
VERTEX
  5
2AC
330
2AB
100
AcDbEntity
  8
0
 62
     7
420
 16777215
370
    15
100
AcDbVertex
100
AcDb2dVertex
 10
114.2793243067138
 20
110.8207968949481
 30
0.0
  0
VERTEX
  5
2AD
330
2AB
100
AcDbEntity
  8
0
 62
     7
420
 16777215
370
    15
100
AcDbVertex
100
AcDb2dVertex
 10
114.9290704012485
 20
110.8207968949481
 30
0.0
  0
SEQEND
  5
2AE
330
2AB
100
AcDbEntity
  8
0
 62
     7
420
 16777215
370
    15
  0
ENDBLK
  5
2AA
330
2A7
100
AcDbEntity
  8
0
100
AcDbBlockEnd
  0
BLOCK
  5
2B1
330
2AF
100
AcDbEntity
  8
0
100
AcDbBlockBegin
  2
block 70
 70
     0
 10
0.0
 20
0.0
 30
0.0
  3
block 70
  1

  0
POLYLINE
  5
2B3
330
2AF
100
AcDbEntity
  8
0
 62
     7
420
 16777215
370
    15
100
AcDb2dPolyline
 66
     1
 10
0.0
 20
0.0
 30
0.0
  0
VERTEX
  5
2B4
330
2B3
100
AcDbEntity
  8
0
 62
     7
420
 16777215
370
    15
100
AcDbVertex
100
AcDb2dVertex
 10
114.9290704012485
 20
110.8207968949481
 30
0.0
  0
VERTEX
  5
2B5
330
2B3
100
AcDbEntity
  8
0
 62
     7
420
 16777215
370
    15
100
AcDbVertex
100
AcDb2dVertex
 10
114.9290704012485
 20
110.420817460708
 30
0.0
  0
SEQEND
  5
2B6
330
2B3
100
AcDbEntity
  8
0
 62
     7
420
 16777215
370
    15
  0
ENDBLK
  5
2B2
330
2AF
100
AcDbEntity
  8
0
100
AcDbBlockEnd
  0
BLOCK
  5
2B9
330
2B7
100
AcDbEntity
  8
0
100
AcDbBlockBegin
  2
block 71
 70
     0
 10
0.0
 20
0.0
 30
0.0
  3
block 71
  1

  0
POLYLINE
  5
2BB
330
2B7
100
AcDbEntity
  8
0
 62
     7
420
 16777215
370
    15
100
AcDb2dPolyline
 66
     1
 10
0.0
 20
0.0
 30
0.0
  0
VERTEX
  5
2BC
330
2BB
100
AcDbEntity
  8
0
 62
     7
420
 16777215
370
    15
100
AcDbVertex
100
AcDb2dVertex
 10
114.9290704012485
 20
108.8205822237557
 30
0.0
  0
VERTEX
  5
2BD
330
2BB
100
AcDbEntity
  8
0
 62
     7
420
 16777215
370
    15
100
AcDbVertex
100
AcDb2dVertex
 10
114.9290704012485
 20
106.6704749733322
 30
0.0
  0
SEQEND
  5
2BE
330
2BB
100
AcDbEntity
  8
0
 62
     7
420
 16777215
370
    15
  0
ENDBLK
  5
2BA
330
2B7
100
AcDbEntity
  8
0
100
AcDbBlockEnd
  0
BLOCK
  5
2C1
330
2BF
100
AcDbEntity
  8
0
100
AcDbBlockBegin
  2
block 72
 70
     0
 10
0.0
 20
0.0
 30
0.0
  3
block 72
  1

  0
SPLINE
  5
2C3
330
2BF
100
AcDbEntity
  8
0
 62
     7
420
 16777215
370
    15
100
AcDbSpline
210
0.0
220
0.0
230
1.0
 70
     8
 71
     3
 72
     8
 73
     4
 74
     0
 42
0.0000000001
 43
0.0000000001
 12
1.0
 22
0.0
 32
0.0
 13
1.0
 23
0.0
 33
0.0
 40
0.0
 40
0.0
 40
0.0
 40
0.0
 40
1.0
 40
1.0
 40
1.0
 40
1.0
 10
113.779085430587
 20
106.8206850525551
 30
0.0
 10
114.0553809790937
 20
106.8206850525551
 30
0.0
 10
114.2793243067138
 20
107.0446283801751
 30
0.0
 10
114.2793243067138
 20
107.320571150913
 30
0.0
  0
ENDBLK
  5
2C2
330
2BF
100
AcDbEntity
  8
0
100
AcDbBlockEnd
  0
BLOCK
  5
2C6
330
2C4
100
AcDbEntity
  8
0
100
AcDbBlockBegin
  2
block 73
 70
     0
 10
0.0
 20
0.0
 30
0.0
  3
block 73
  1

  0
POLYLINE
  5
2C8
330
2C4
100
AcDbEntity
  8
0
 62
     7
420
 16777215
370
    15
100
AcDb2dPolyline
 66
     1
 10
0.0
 20
0.0
 30
0.0
  0
VERTEX
  5
2C9
330
2C8
100
AcDbEntity
  8
0
 62
     7
420
 16777215
370
    15
100
AcDbVertex
100
AcDb2dVertex
 10
102.4492040529697
 20
106.8206850525551
 30
0.0
  0
VERTEX
  5
2CA
330
2C8
100
AcDbEntity
  8
0
 62
     7
420
 16777215
370
    15
100
AcDbVertex
100
AcDb2dVertex
 10
110.4490777501658
 20
106.8206850525551
 30
0.0
  0
SEQEND
  5
2CB
330
2C8
100
AcDbEntity
  8
0
 62
     7
420
 16777215
370
    15
  0
ENDBLK
  5
2C7
330
2C4
100
AcDbEntity
  8
0
100
AcDbBlockEnd
  0
BLOCK
  5
2CE
330
2CC
100
AcDbEntity
  8
0
100
AcDbBlockBegin
  2
block 74
 70
     0
 10
0.0
 20
0.0
 30
0.0
  3
block 74
  1

  0
POLYLINE
  5
2D0
330
2CC
100
AcDbEntity
  8
0
 62
     7
420
 16777215
370
    15
100
AcDb2dPolyline
 66
     1
 10
0.0
 20
0.0
 30
0.0
  0
VERTEX
  5
2D1
330
2D0
100
AcDbEntity
  8
0
 62
     7
420
 16777215
370
    15
100
AcDbVertex
100
AcDb2dVertex
 10
102.4492040529697
 20
106.1706214580284
 30
0.0
  0
VERTEX
  5
2D2
330
2D0
100
AcDbEntity
  8
0
 62
     7
420
 16777215
370
    15
100
AcDbVertex
100
AcDb2dVertex
 10
102.4492040529697
 20
106.8206850525551
 30
0.0
  0
SEQEND
  5
2D3
330
2D0
100
AcDbEntity
  8
0
 62
     7
420
 16777215
370
    15
  0
ENDBLK
  5
2CF
330
2CC
100
AcDbEntity
  8
0
100
AcDbBlockEnd
  0
BLOCK
  5
2D6
330
2D4
100
AcDbEntity
  8
0
100
AcDbBlockBegin
  2
block 75
 70
     0
 10
0.0
 20
0.0
 30
0.0
  3
block 75
  1

  0
POLYLINE
  5
2D8
330
2D4
100
AcDbEntity
  8
0
 62
     7
420
 16777215
370
    15
100
AcDb2dPolyline
 66
     1
 10
0.0
 20
0.0
 30
0.0
  0
VERTEX
  5
2D9
330
2D8
100
AcDbEntity
  8
0
 62
     7
420
 16777215
370
    15
100
AcDbVertex
100
AcDb2dVertex
 10
102.4492040529697
 20
106.1706214580284
 30
0.0
  0
VERTEX
  5
2DA
330
2D8
100
AcDbEntity
  8
0
 62
     7
420
 16777215
370
    15
100
AcDbVertex
100
AcDb2dVertex
 10
110.4490777501658
 20
106.1706214580284
 30
0.0
  0
SEQEND
  5
2DB
330
2D8
100
AcDbEntity
  8
0
 62
     7
420
 16777215
370
    15
  0
ENDBLK
  5
2D7
330
2D4
100
AcDbEntity
  8
0
100
AcDbBlockEnd
  0
BLOCK
  5
2DE
330
2DC
100
AcDbEntity
  8
0
100
AcDbBlockBegin
  2
block 76
 70
     0
 10
0.0
 20
0.0
 30
0.0
  3
block 76
  1

  0
SPLINE
  5
2E0
330
2DC
100
AcDbEntity
  8
0
 62
     7
420
 16777215
370
    15
100
AcDbSpline
210
0.0
220
0.0
230
1.0
 70
     8
 71
     3
 72
     8
 73
     4
 74
     0
 42
0.0000000001
 43
0.0000000001
 12
1.0
 22
0.0
 32
0.0
 13
1.0
 23
0.0
 33
0.0
 40
0.0
 40
0.0
 40
0.0
 40
0.0
 40
1.0
 40
1.0
 40
1.0
 40
1.0
 10
105.9490770192361
 20
107.8607797482423
 30
0.0
 10
105.9490770192361
 20
107.7501839177305
 30
0.0
 10
106.0386499734905
 20
107.6606136422378
 30
0.0
 10
106.1492431252405
 20
107.6606136422378
 30
0.0
  0
ENDBLK
  5
2DF
330
2DC
100
AcDbEntity
  8
0
100
AcDbBlockEnd
  0
BLOCK
  5
2E3
330
2E1
100
AcDbEntity
  8
0
100
AcDbBlockBegin
  2
block 77
 70
     0
 10
0.0
 20
0.0
 30
0.0
  3
block 77
  1

  0
POLYLINE
  5
2E5
330
2E1
100
AcDbEntity
  8
0
 62
     7
420
 16777215
370
    15
100
AcDb2dPolyline
 66
     1
 10
0.0
 20
0.0
 30
0.0
  0
VERTEX
  5
2E6
330
2E5
100
AcDbEntity
  8
0
 62
     7
420
 16777215
370
    15
100
AcDbVertex
100
AcDb2dVertex
 10
105.9490770192361
 20
107.8607797482423
 30
0.0
  0
VERTEX
  5
2E7
330
2E5
100
AcDbEntity
  8
0
 62
     7
420
 16777215
370
    15
100
AcDbVertex
100
AcDb2dVertex
 10
105.9490770192361
 20
107.9606864123601
 30
0.0
  0
SEQEND
  5
2E8
330
2E5
100
AcDbEntity
  8
0
 62
     7
420
 16777215
370
    15
  0
ENDBLK
  5
2E4
330
2E1
100
AcDbEntity
  8
0
100
AcDbBlockEnd
  0
BLOCK
  5
2EB
330
2E9
100
AcDbEntity
  8
0
100
AcDbBlockBegin
  2
block 78
 70
     0
 10
0.0
 20
0.0
 30
0.0
  3
block 78
  1

  0
POLYLINE
  5
2ED
330
2E9
100
AcDbEntity
  8
0
 62
     7
420
 16777215
370
    15
100
AcDb2dPolyline
 66
     1
 10
0.0
 20
0.0
 30
0.0
  0
VERTEX
  5
2EE
330
2ED
100
AcDbEntity
  8
0
 62
     7
420
 16777215
370
    15
100
AcDbVertex
100
AcDb2dVertex
 10
102.9490901513277
 20
107.9606864123601
 30
0.0
  0
VERTEX
  5
2EF
330
2ED
100
AcDbEntity
  8
0
 62
     7
420
 16777215
370
    15
100
AcDbVertex
100
AcDb2dVertex
 10
105.9490770192361
 20
107.9606864123601
 30
0.0
  0
SEQEND
  5
2F0
330
2ED
100
AcDbEntity
  8
0
 62
     7
420
 16777215
370
    15
  0
ENDBLK
  5
2EC
330
2E9
100
AcDbEntity
  8
0
100
AcDbBlockEnd
  0
BLOCK
  5
2F3
330
2F1
100
AcDbEntity
  8
0
100
AcDbBlockBegin
  2
block 79
 70
     0
 10
0.0
 20
0.0
 30
0.0
  3
block 79
  1

  0
POLYLINE
  5
2F5
330
2F1
100
AcDbEntity
  8
0
 62
     7
420
 16777215
370
    15
100
AcDb2dPolyline
 66
     1
 10
0.0
 20
0.0
 30
0.0
  0
VERTEX
  5
2F6
330
2F5
100
AcDbEntity
  8
0
 62
     7
420
 16777215
370
    15
100
AcDbVertex
100
AcDb2dVertex
 10
102.9490901513277
 20
108.8205822237557
 30
0.0
  0
VERTEX
  5
2F7
330
2F5
100
AcDbEntity
  8
0
 62
     7
420
 16777215
370
    15
100
AcDbVertex
100
AcDb2dVertex
 10
102.9490901513277
 20
107.9606864123601
 30
0.0
  0
SEQEND
  5
2F8
330
2F5
100
AcDbEntity
  8
0
 62
     7
420
 16777215
370
    15
  0
ENDBLK
  5
2F4
330
2F1
100
AcDbEntity
  8
0
100
AcDbBlockEnd
  0
BLOCK
  5
2FB
330
2F9
100
AcDbEntity
  8
0
100
AcDbBlockBegin
  2
block 80
 70
     0
 10
0.0
 20
0.0
 30
0.0
  3
block 80
  1

  0
POLYLINE
  5
2FD
330
2F9
100
AcDbEntity
  8
0
 62
     7
420
 16777215
370
    15
100
AcDb2dPolyline
 66
     1
 10
0.0
 20
0.0
 30
0.0
  0
VERTEX
  5
2FE
330
2FD
100
AcDbEntity
  8
0
 62
     7
420
 16777215
370
    15
100
AcDbVertex
100
AcDb2dVertex
 10
107.949294417457
 20
107.9606864123601
 30
0.0
  0
VERTEX
  5
2FF
330
2FD
100
AcDbEntity
  8
0
 62
     7
420
 16777215
370
    15
100
AcDbVertex
100
AcDb2dVertex
 10
110.4490777501658
 20
107.9606864123601
 30
0.0
  0
SEQEND
  5
300
330
2FD
100
AcDbEntity
  8
0
 62
     7
420
 16777215
370
    15
  0
ENDBLK
  5
2FC
330
2F9
100
AcDbEntity
  8
0
100
AcDbBlockEnd
  0
BLOCK
  5
303
330
301
100
AcDbEntity
  8
0
100
AcDbBlockBegin
  2
block 81
 70
     0
 10
0.0
 20
0.0
 30
0.0
  3
block 81
  1

  0
POLYLINE
  5
305
330
301
100
AcDbEntity
  8
0
 62
     7
420
 16777215
370
    15
100
AcDb2dPolyline
 66
     1
 10
0.0
 20
0.0
 30
0.0
  0
VERTEX
  5
306
330
305
100
AcDbEntity
  8
0
 62
     7
420
 16777215
370
    15
100
AcDbVertex
100
AcDb2dVertex
 10
107.949294417457
 20
107.8607797482423
 30
0.0
  0
VERTEX
  5
307
330
305
100
AcDbEntity
  8
0
 62
     7
420
 16777215
370
    15
100
AcDbVertex
100
AcDb2dVertex
 10
107.949294417457
 20
107.9606864123601
 30
0.0
  0
SEQEND
  5
308
330
305
100
AcDbEntity
  8
0
 62
     7
420
 16777215
370
    15
  0
ENDBLK
  5
304
330
301
100
AcDbEntity
  8
0
100
AcDbBlockEnd
  0
BLOCK
  5
30B
330
309
100
AcDbEntity
  8
0
100
AcDbBlockBegin
  2
block 82
 70
     0
 10
0.0
 20
0.0
 30
0.0
  3
block 82
  1

  0
SPLINE
  5
30D
330
309
100
AcDbEntity
  8
0
 62
     7
420
 16777215
370
    15
100
AcDbSpline
210
0.0
220
0.0
230
1.0
 70
     8
 71
     3
 72
     8
 73
     4
 74
     0
 42
0.0000000001
 43
0.0000000001
 12
1.0
 22
0.0
 32
0.0
 13
1.0
 23
0.0
 33
0.0
 40
0.0
 40
0.0
 40
0.0
 40
0.0
 40
1.0
 40
1.0
 40
1.0
 40
1.0
 10
107.749160862201
 20
107.6606136422378
 30
0.0
 10
107.8597214149359
 20
107.6606136422378
 30
0.0
 10
107.949294417457
 20
107.7501839177305
 30
0.0
 10
107.949294417457
 20
107.8607797482423
 30
0.0
  0
ENDBLK
  5
30C
330
309
100
AcDbEntity
  8
0
100
AcDbBlockEnd
  0
BLOCK
  5
310
330
30E
100
AcDbEntity
  8
0
100
AcDbBlockBegin
  2
block 83
 70
     0
 10
0.0
 20
0.0
 30
0.0
  3
block 83
  1

  0
POLYLINE
  5
312
330
30E
100
AcDbEntity
  8
0
 62
     7
420
 16777215
370
    15
100
AcDb2dPolyline
 66
     1
 10
0.0
 20
0.0
 30
0.0
  0
VERTEX
  5
313
330
312
100
AcDbEntity
  8
0
 62
     7
420
 16777215
370
    15
100
AcDbVertex
100
AcDb2dVertex
 10
107.749160862201
 20
107.6606136422378
 30
0.0
  0
VERTEX
  5
314
330
312
100
AcDbEntity
  8
0
 62
     7
420
 16777215
370
    15
100
AcDbVertex
100
AcDb2dVertex
 10
106.1492431252405
 20
107.6606136422378
 30
0.0
  0
SEQEND
  5
315
330
312
100
AcDbEntity
  8
0
 62
     7
420
 16777215
370
    15
  0
ENDBLK
  5
311
330
30E
100
AcDbEntity
  8
0
100
AcDbBlockEnd
  0
BLOCK
  5
318
330
316
100
AcDbEntity
  8
0
100
AcDbBlockBegin
  2
block 84
 70
     0
 10
0.0
 20
0.0
 30
0.0
  3
block 84
  1

  0
POLYLINE
  5
31A
330
316
100
AcDbEntity
  8
0
 62
     7
420
 16777215
370
    15
100
AcDb2dPolyline
 66
     1
 10
0.0
 20
0.0
 30
0.0
  0
VERTEX
  5
31B
330
31A
100
AcDbEntity
  8
0
 62
     7
420
 16777215
370
    15
100
AcDbVertex
100
AcDb2dVertex
 10
101.9493179546118
 20
107.9606864123601
 30
0.0
  0
VERTEX
  5
31C
330
31A
100
AcDbEntity
  8
0
 62
     7
420
 16777215
370
    15
100
AcDbVertex
100
AcDb2dVertex
 10
101.9493179546118
 20
108.8205822237557
 30
0.0
  0
SEQEND
  5
31D
330
31A
100
AcDbEntity
  8
0
 62
     7
420
 16777215
370
    15
  0
ENDBLK
  5
319
330
316
100
AcDbEntity
  8
0
100
AcDbBlockEnd
  0
BLOCK
  5
320
330
31E
100
AcDbEntity
  8
0
100
AcDbBlockBegin
  2
block 85
 70
     0
 10
0.0
 20
0.0
 30
0.0
  3
block 85
  1

  0
POLYLINE
  5
322
330
31E
100
AcDbEntity
  8
0
 62
     7
420
 16777215
370
    15
100
AcDb2dPolyline
 66
     1
 10
0.0
 20
0.0
 30
0.0
  0
VERTEX
  5
323
330
322
100
AcDbEntity
  8
0
 62
     7
420
 16777215
370
    15
100
AcDbVertex
100
AcDb2dVertex
 10
102.9490901513277
 20
107.9606864123601
 30
0.0
  0
VERTEX
  5
324
330
322
100
AcDbEntity
  8
0
 62
     7
420
 16777215
370
    15
100
AcDbVertex
100
AcDb2dVertex
 10
101.9493179546118
 20
107.9606864123601
 30
0.0
  0
SEQEND
  5
325
330
322
100
AcDbEntity
  8
0
 62
     7
420
 16777215
370
    15
  0
ENDBLK
  5
321
330
31E
100
AcDbEntity
  8
0
100
AcDbBlockEnd
  0
BLOCK
  5
328
330
326
100
AcDbEntity
  8
0
100
AcDbBlockBegin
  2
block 86
 70
     0
 10
0.0
 20
0.0
 30
0.0
  3
block 86
  1

  0
POLYLINE
  5
32A
330
326
100
AcDbEntity
  8
0
 62
     7
420
 16777215
370
    15
100
AcDb2dPolyline
 66
     1
 10
0.0
 20
0.0
 30
0.0
  0
VERTEX
  5
32B
330
32A
100
AcDbEntity
  8
0
 62
     7
420
 16777215
370
    15
100
AcDbVertex
100
AcDb2dVertex
 10
122.7590788125994
 20
103.0706926482253
 30
0.0
  0
VERTEX
  5
32C
330
32A
100
AcDbEntity
  8
0
 62
     7
420
 16777215
370
    15
100
AcDbVertex
100
AcDb2dVertex
 10
119.6092319485143
 20
103.0706926482253
 30
0.0
  0
SEQEND
  5
32D
330
32A
100
AcDbEntity
  8
0
 62
     7
420
 16777215
370
    15
  0
ENDBLK
  5
329
330
326
100
AcDbEntity
  8
0
100
AcDbBlockEnd
  0
BLOCK
  5
330
330
32E
100
AcDbEntity
  8
0
100
AcDbBlockBegin
  2
block 87
 70
     0
 10
0.0
 20
0.0
 30
0.0
  3
block 87
  1

  0
POLYLINE
  5
332
330
32E
100
AcDbEntity
  8
0
 62
     7
420
 16777215
370
    15
100
AcDb2dPolyline
 66
     1
 10
0.0
 20
0.0
 30
0.0
  0
VERTEX
  5
333
330
332
100
AcDbEntity
  8
0
 62
     7
420
 16777215
370
    15
100
AcDbVertex
100
AcDb2dVertex
 10
119.6092319485143
 20
103.0706926482253
 30
0.0
  0
VERTEX
  5
334
330
332
100
AcDbEntity
  8
0
 62
     7
420
 16777215
370
    15
100
AcDbVertex
100
AcDb2dVertex
 10
119.6092319485143
 20
108.8205822237557
 30
0.0
  0
SEQEND
  5
335
330
332
100
AcDbEntity
  8
0
 62
     7
420
 16777215
370
    15
  0
ENDBLK
  5
331
330
32E
100
AcDbEntity
  8
0
100
AcDbBlockEnd
  0
BLOCK
  5
338
330
336
100
AcDbEntity
  8
0
100
AcDbBlockBegin
  2
block 88
 70
     0
 10
0.0
 20
0.0
 30
0.0
  3
block 88
  1

  0
POLYLINE
  5
33A
330
336
100
AcDbEntity
  8
0
 62
     7
420
 16777215
370
    15
100
AcDb2dPolyline
 66
     1
 10
0.0
 20
0.0
 30
0.0
  0
VERTEX
  5
33B
330
33A
100
AcDbEntity
  8
0
 62
     7
420
 16777215
370
    15
100
AcDbVertex
100
AcDb2dVertex
 10
122.7590788125994
 20
103.0706926482253
 30
0.0
  0
VERTEX
  5
33C
330
33A
100
AcDbEntity
  8
0
 62
     7
420
 16777215
370
    15
100
AcDbVertex
100
AcDb2dVertex
 10
122.7590788125994
 20
108.8205822237557
 30
0.0
  0
SEQEND
  5
33D
330
33A
100
AcDbEntity
  8
0
 62
     7
420
 16777215
370
    15
  0
ENDBLK
  5
339
330
336
100
AcDbEntity
  8
0
100
AcDbBlockEnd
  0
BLOCK
  5
340
330
33E
100
AcDbEntity
  8
0
100
AcDbBlockBegin
  2
block 89
 70
     0
 10
0.0
 20
0.0
 30
0.0
  3
block 89
  1

  0
POLYLINE
  5
342
330
33E
100
AcDbEntity
  8
0
 62
     7
420
 16777215
370
    15
100
AcDb2dPolyline
 66
     1
 10
0.0
 20
0.0
 30
0.0
  0
VERTEX
  5
343
330
342
100
AcDbEntity
  8
0
 62
     7
420
 16777215
370
    15
100
AcDbVertex
100
AcDb2dVertex
 10
118.2790833713381
 20
110.8207968949481
 30
0.0
  0
VERTEX
  5
344
330
342
100
AcDbEntity
  8
0
 62
     7
420
 16777215
370
    15
100
AcDbVertex
100
AcDb2dVertex
 10
118.9291822436416
 20
110.8207968949481
 30
0.0
  0
SEQEND
  5
345
330
342
100
AcDbEntity
  8
0
 62
     7
420
 16777215
370
    15
  0
ENDBLK
  5
341
330
33E
100
AcDbEntity
  8
0
100
AcDbBlockEnd
  0
BLOCK
  5
348
330
346
100
AcDbEntity
  8
0
100
AcDbBlockBegin
  2
block 90
 70
     0
 10
0.0
 20
0.0
 30
0.0
  3
block 90
  1

  0
POLYLINE
  5
34A
330
346
100
AcDbEntity
  8
0
 62
     7
420
 16777215
370
    15
100
AcDb2dPolyline
 66
     1
 10
0.0
 20
0.0
 30
0.0
  0
VERTEX
  5
34B
330
34A
100
AcDbEntity
  8
0
 62
     7
420
 16777215
370
    15
100
AcDbVertex
100
AcDb2dVertex
 10
118.9291822436416
 20
110.8207968949481
 30
0.0
  0
VERTEX
  5
34C
330
34A
100
AcDbEntity
  8
0
 62
     7
420
 16777215
370
    15
100
AcDbVertex
100
AcDb2dVertex
 10
118.9291822436416
 20
110.420817460708
 30
0.0
  0
SEQEND
  5
34D
330
34A
100
AcDbEntity
  8
0
 62
     7
420
 16777215
370
    15
  0
ENDBLK
  5
349
330
346
100
AcDbEntity
  8
0
100
AcDbBlockEnd
  0
BLOCK
  5
350
330
34E
100
AcDbEntity
  8
0
100
AcDbBlockBegin
  2
block 91
 70
     0
 10
0.0
 20
0.0
 30
0.0
  3
block 91
  1

  0
POLYLINE
  5
352
330
34E
100
AcDbEntity
  8
0
 62
     7
420
 16777215
370
    15
100
AcDb2dPolyline
 66
     1
 10
0.0
 20
0.0
 30
0.0
  0
VERTEX
  5
353
330
352
100
AcDbEntity
  8
0
 62
     7
420
 16777215
370
    15
100
AcDbVertex
100
AcDb2dVertex
 10
118.9291822436416
 20
108.8205822237557
 30
0.0
  0
VERTEX
  5
354
330
352
100
AcDbEntity
  8
0
 62
     7
420
 16777215
370
    15
100
AcDbVertex
100
AcDb2dVertex
 10
118.9291822436416
 20
107.320571150913
 30
0.0
  0
SEQEND
  5
355
330
352
100
AcDbEntity
  8
0
 62
     7
420
 16777215
370
    15
  0
ENDBLK
  5
351
330
34E
100
AcDbEntity
  8
0
100
AcDbBlockEnd
  0
BLOCK
  5
358
330
356
100
AcDbEntity
  8
0
100
AcDbBlockBegin
  2
block 92
 70
     0
 10
0.0
 20
0.0
 30
0.0
  3
block 92
  1

  0
SPLINE
  5
35A
330
356
100
AcDbEntity
  8
0
 62
     7
420
 16777215
370
    15
100
AcDbSpline
210
0.0
220
0.0
230
1.0
 70
     8
 71
     3
 72
     8
 73
     4
 74
     0
 42
0.0000000001
 43
0.0000000001
 12
1.0
 22
0.0
 32
0.0
 13
1.0
 23
0.0
 33
0.0
 40
0.0
 40
0.0
 40
0.0
 40
0.0
 40
1.0
 40
1.0
 40
1.0
 40
1.0
 10
118.9291822436416
 20
107.320571150913
 30
0.0
 10
118.9291822436416
 20
107.0446283801751
 30
0.0
 10
119.1530902934848
 20
106.8206850525551
 30
0.0
 10
119.4290683419995
 20
106.8206850525551
 30
0.0
  0
ENDBLK
  5
359
330
356
100
AcDbEntity
  8
0
100
AcDbBlockEnd
  0
BLOCK
  5
35D
330
35B
100
AcDbEntity
  8
0
100
AcDbBlockBegin
  2
block 93
 70
     0
 10
0.0
 20
0.0
 30
0.0
  3
block 93
  1

  0
POLYLINE
  5
35F
330
35B
100
AcDbEntity
  8
0
 62
     7
420
 16777215
370
    15
100
AcDb2dPolyline
 66
     1
 10
0.0
 20
0.0
 30
0.0
  0
VERTEX
  5
360
330
35F
100
AcDbEntity
  8
0
 62
     7
420
 16777215
370
    15
100
AcDbVertex
100
AcDb2dVertex
 10
119.4290683419995
 20
106.8206850525551
 30
0.0
  0
VERTEX
  5
361
330
35F
100
AcDbEntity
  8
0
 62
     7
420
 16777215
370
    15
100
AcDbVertex
100
AcDb2dVertex
 10
119.6092319485143
 20
106.8206850525551
 30
0.0
  0
SEQEND
  5
362
330
35F
100
AcDbEntity
  8
0
 62
     7
420
 16777215
370
    15
  0
ENDBLK
  5
35E
330
35B
100
AcDbEntity
  8
0
100
AcDbBlockEnd
  0
BLOCK
  5
365
330
363
100
AcDbEntity
  8
0
100
AcDbBlockBegin
  2
block 94
 70
     0
 10
0.0
 20
0.0
 30
0.0
  3
block 94
  1

  0
POLYLINE
  5
367
330
363
100
AcDbEntity
  8
0
 62
     7
420
 16777215
370
    15
100
AcDb2dPolyline
 66
     1
 10
0.0
 20
0.0
 30
0.0
  0
VERTEX
  5
368
330
367
100
AcDbEntity
  8
0
 62
     7
420
 16777215
370
    15
100
AcDbVertex
100
AcDb2dVertex
 10
118.7793222474648
 20
106.1706214580284
 30
0.0
  0
VERTEX
  5
369
330
367
100
AcDbEntity
  8
0
 62
     7
420
 16777215
370
    15
100
AcDbVertex
100
AcDb2dVertex
 10
119.6092319485143
 20
106.1706214580284
 30
0.0
  0
SEQEND
  5
36A
330
367
100
AcDbEntity
  8
0
 62
     7
420
 16777215
370
    15
  0
ENDBLK
  5
366
330
363
100
AcDbEntity
  8
0
100
AcDbBlockEnd
  0
BLOCK
  5
36D
330
36B
100
AcDbEntity
  8
0
100
AcDbBlockBegin
  2
block 95
 70
     0
 10
0.0
 20
0.0
 30
0.0
  3
block 95
  1

  0
SPLINE
  5
36F
330
36B
100
AcDbEntity
  8
0
 62
     7
420
 16777215
370
    15
100
AcDbSpline
210
0.0
220
0.0
230
1.0
 70
     8
 71
     3
 72
     8
 73
     4
 74
     0
 42
0.0000000001
 43
0.0000000001
 12
1.0
 22
0.0
 32
0.0
 13
1.0
 23
0.0
 33
0.0
 40
0.0
 40
0.0
 40
0.0
 40
0.0
 40
1.0
 40
1.0
 40
1.0
 40
1.0
 10
118.2790833713381
 20
106.6704749733322
 30
0.0
 10
118.2790833713381
 20
106.3945295078716
 30
0.0
 10
118.5030266989581
 20
106.1706214580284
 30
0.0
 10
118.7793222474648
 20
106.1706214580284
 30
0.0
  0
ENDBLK
  5
36E
330
36B
100
AcDbEntity
  8
0
100
AcDbBlockEnd
  0
BLOCK
  5
372
330
370
100
AcDbEntity
  8
0
100
AcDbBlockBegin
  2
block 96
 70
     0
 10
0.0
 20
0.0
 30
0.0
  3
block 96
  1

  0
POLYLINE
  5
374
330
370
100
AcDbEntity
  8
0
 62
     7
420
 16777215
370
    15
100
AcDb2dPolyline
 66
     1
 10
0.0
 20
0.0
 30
0.0
  0
VERTEX
  5
375
330
374
100
AcDbEntity
  8
0
 62
     7
420
 16777215
370
    15
100
AcDbVertex
100
AcDb2dVertex
 10
118.2790833713381
 20
106.6704749733322
 30
0.0
  0
VERTEX
  5
376
330
374
100
AcDbEntity
  8
0
 62
     7
420
 16777215
370
    15
100
AcDbVertex
100
AcDb2dVertex
 10
118.2790833713381
 20
108.8205822237557
 30
0.0
  0
SEQEND
  5
377
330
374
100
AcDbEntity
  8
0
 62
     7
420
 16777215
370
    15
  0
ENDBLK
  5
373
330
370
100
AcDbEntity
  8
0
100
AcDbBlockEnd
  0
BLOCK
  5
37A
330
378
100
AcDbEntity
  8
0
100
AcDbBlockBegin
  2
block 97
 70
     0
 10
0.0
 20
0.0
 30
0.0
  3
block 97
  1

  0
POLYLINE
  5
37C
330
378
100
AcDbEntity
  8
0
 62
     7
420
 16777215
370
    15
100
AcDb2dPolyline
 66
     1
 10
0.0
 20
0.0
 30
0.0
  0
VERTEX
  5
37D
330
37C
100
AcDbEntity
  8
0
 62
     7
420
 16777215
370
    15
100
AcDbVertex
100
AcDb2dVertex
 10
118.2790833713381
 20
110.420817460708
 30
0.0
  0
VERTEX
  5
37E
330
37C
100
AcDbEntity
  8
0
 62
     7
420
 16777215
370
    15
100
AcDbVertex
100
AcDb2dVertex
 10
118.2790833713381
 20
110.8207968949481
 30
0.0
  0
SEQEND
  5
37F
330
37C
100
AcDbEntity
  8
0
 62
     7
420
 16777215
370
    15
  0
ENDBLK
  5
37B
330
378
100
AcDbEntity
  8
0
100
AcDbBlockEnd
  0
BLOCK
  5
382
330
380
100
AcDbEntity
  8
0
100
AcDbBlockBegin
  2
block 98
 70
     0
 10
0.0
 20
0.0
 30
0.0
  3
block 98
  1

  0
POLYLINE
  5
384
330
380
100
AcDbEntity
  8
0
 62
     7
420
 16777215
370
    15
100
AcDb2dPolyline
 66
     1
 10
0.0
 20
0.0
 30
0.0
  0
VERTEX
  5
385
330
384
100
AcDbEntity
  8
0
 62
     7
420
 16777215
370
    15
100
AcDbVertex
100
AcDb2dVertex
 10
130.7593024973856
 20
106.8206850525551
 30
0.0
  0
VERTEX
  5
386
330
384
100
AcDbEntity
  8
0
 62
     7
420
 16777215
370
    15
100
AcDbVertex
100
AcDb2dVertex
 10
130.7593024973856
 20
106.1706214580284
 30
0.0
  0
SEQEND
  5
387
330
384
100
AcDbEntity
  8
0
 62
     7
420
 16777215
370
    15
  0
ENDBLK
  5
383
330
380
100
AcDbEntity
  8
0
100
AcDbBlockEnd
  0
BLOCK
  5
38A
330
388
100
AcDbEntity
  8
0
100
AcDbBlockBegin
  2
block 99
 70
     0
 10
0.0
 20
0.0
 30
0.0
  3
block 99
  1

  0
POLYLINE
  5
38C
330
388
100
AcDbEntity
  8
0
 62
     7
420
 16777215
370
    15
100
AcDb2dPolyline
 66
     1
 10
0.0
 20
0.0
 30
0.0
  0
VERTEX
  5
38D
330
38C
100
AcDbEntity
  8
0
 62
     7
420
 16777215
370
    15
100
AcDbVertex
100
AcDb2dVertex
 10
130.7593024973856
 20
106.1706214580284
 30
0.0
  0
VERTEX
  5
38E
330
38C
100
AcDbEntity
  8
0
 62
     7
420
 16777215
370
    15
100
AcDbVertex
100
AcDb2dVertex
 10
122.7590788125994
 20
106.1706214580284
 30
0.0
  0
SEQEND
  5
38F
330
38C
100
AcDbEntity
  8
0
 62
     7
420
 16777215
370
    15
  0
ENDBLK
  5
38B
330
388
100
AcDbEntity
  8
0
100
AcDbBlockEnd
  0
BLOCK
  5
392
330
390
100
AcDbEntity
  8
0
100
AcDbBlockBegin
  2
block 100
 70
     0
 10
0.0
 20
0.0
 30
0.0
  3
block 100
  1

  0
POLYLINE
  5
394
330
390
100
AcDbEntity
  8
0
 62
     7
420
 16777215
370
    15
100
AcDb2dPolyline
 66
     1
 10
0.0
 20
0.0
 30
0.0
  0
VERTEX
  5
395
330
394
100
AcDbEntity
  8
0
 62
     7
420
 16777215
370
    15
100
AcDbVertex
100
AcDb2dVertex
 10
130.7593024973856
 20
106.8206850525551
 30
0.0
  0
VERTEX
  5
396
330
394
100
AcDbEntity
  8
0
 62
     7
420
 16777215
370
    15
100
AcDbVertex
100
AcDb2dVertex
 10
122.7590788125994
 20
106.8206850525551
 30
0.0
  0
SEQEND
  5
397
330
394
100
AcDbEntity
  8
0
 62
     7
420
 16777215
370
    15
  0
ENDBLK
  5
393
330
390
100
AcDbEntity
  8
0
100
AcDbBlockEnd
  0
BLOCK
  5
39A
330
398
100
AcDbEntity
  8
0
100
AcDbBlockBegin
  2
block 101
 70
     0
 10
0.0
 20
0.0
 30
0.0
  3
block 101
  1

  0
POLYLINE
  5
39C
330
398
100
AcDbEntity
  8
0
 62
     7
420
 16777215
370
    15
100
AcDb2dPolyline
 66
     1
 10
0.0
 20
0.0
 30
0.0
  0
VERTEX
  5
39D
330
39C
100
AcDbEntity
  8
0
 62
     7
420
 16777215
370
    15
100
AcDbVertex
100
AcDb2dVertex
 10
125.2591795821499
 20
107.9606864123601
 30
0.0
  0
VERTEX
  5
39E
330
39C
100
AcDbEntity
  8
0
 62
     7
420
 16777215
370
    15
100
AcDbVertex
100
AcDb2dVertex
 10
122.7590788125994
 20
107.9606864123601
 30
0.0
  0
SEQEND
  5
39F
330
39C
100
AcDbEntity
  8
0
 62
     7
420
 16777215
370
    15
  0
ENDBLK
  5
39B
330
398
100
AcDbEntity
  8
0
100
AcDbBlockEnd
  0
BLOCK
  5
3A2
330
3A0
100
AcDbEntity
  8
0
100
AcDbBlockBegin
  2
block 102
 70
     0
 10
0.0
 20
0.0
 30
0.0
  3
block 102
  1

  0
POLYLINE
  5
3A4
330
3A0
100
AcDbEntity
  8
0
 62
     7
420
 16777215
370
    15
100
AcDb2dPolyline
 66
     1
 10
0.0
 20
0.0
 30
0.0
  0
VERTEX
  5
3A5
330
3A4
100
AcDbEntity
  8
0
 62
     7
420
 16777215
370
    15
100
AcDbVertex
100
AcDb2dVertex
 10
130.2590636212589
 20
107.9606864123601
 30
0.0
  0
VERTEX
  5
3A6
330
3A4
100
AcDbEntity
  8
0
 62
     7
420
 16777215
370
    15
100
AcDbVertex
100
AcDb2dVertex
 10
130.2590636212589
 20
108.8205822237557
 30
0.0
  0
SEQEND
  5
3A7
330
3A4
100
AcDbEntity
  8
0
 62
     7
420
 16777215
370
    15
  0
ENDBLK
  5
3A3
330
3A0
100
AcDbEntity
  8
0
100
AcDbBlockEnd
  0
BLOCK
  5
3AA
330
3A8
100
AcDbEntity
  8
0
100
AcDbBlockBegin
  2
block 103
 70
     0
 10
0.0
 20
0.0
 30
0.0
  3
block 103
  1

  0
POLYLINE
  5
3AC
330
3A8
100
AcDbEntity
  8
0
 62
     7
420
 16777215
370
    15
100
AcDb2dPolyline
 66
     1
 10
0.0
 20
0.0
 30
0.0
  0
VERTEX
  5
3AD
330
3AC
100
AcDbEntity
  8
0
 62
     7
420
 16777215
370
    15
100
AcDbVertex
100
AcDb2dVertex
 10
130.2590636212589
 20
107.9606864123601
 30
0.0
  0
VERTEX
  5
3AE
330
3AC
100
AcDbEntity
  8
0
 62
     7
420
 16777215
370
    15
100
AcDbVertex
100
AcDb2dVertex
 10
127.2590767533505
 20
107.9606864123601
 30
0.0
  0
SEQEND
  5
3AF
330
3AC
100
AcDbEntity
  8
0
 62
     7
420
 16777215
370
    15
  0
ENDBLK
  5
3AB
330
3A8
100
AcDbEntity
  8
0
100
AcDbBlockEnd
  0
BLOCK
  5
3B2
330
3B0
100
AcDbEntity
  8
0
100
AcDbBlockBegin
  2
block 104
 70
     0
 10
0.0
 20
0.0
 30
0.0
  3
block 104
  1

  0
POLYLINE
  5
3B4
330
3B0
100
AcDbEntity
  8
0
 62
     7
420
 16777215
370
    15
100
AcDb2dPolyline
 66
     1
 10
0.0
 20
0.0
 30
0.0
  0
VERTEX
  5
3B5
330
3B4
100
AcDbEntity
  8
0
 62
     7
420
 16777215
370
    15
100
AcDbVertex
100
AcDb2dVertex
 10
127.2590767533505
 20
107.8607797482423
 30
0.0
  0
VERTEX
  5
3B6
330
3B4
100
AcDbEntity
  8
0
 62
     7
420
 16777215
370
    15
100
AcDbVertex
100
AcDb2dVertex
 10
127.2590767533505
 20
107.9606864123601
 30
0.0
  0
SEQEND
  5
3B7
330
3B4
100
AcDbEntity
  8
0
 62
     7
420
 16777215
370
    15
  0
ENDBLK
  5
3B3
330
3B0
100
AcDbEntity
  8
0
100
AcDbBlockEnd
  0
BLOCK
  5
3BA
330
3B8
100
AcDbEntity
  8
0
100
AcDbBlockBegin
  2
block 105
 70
     0
 10
0.0
 20
0.0
 30
0.0
  3
block 105
  1

  0
SPLINE
  5
3BC
330
3B8
100
AcDbEntity
  8
0
 62
     7
420
 16777215
370
    15
100
AcDbSpline
210
0.0
220
0.0
230
1.0
 70
     8
 71
     3
 72
     8
 73
     4
 74
     0
 42
0.0000000001
 43
0.0000000001
 12
1.0
 22
0.0
 32
0.0
 13
1.0
 23
0.0
 33
0.0
 40
0.0
 40
0.0
 40
0.0
 40
0.0
 40
1.0
 40
1.0
 40
1.0
 40
1.0
 10
127.0592666349017
 20
107.6606136422378
 30
0.0
 10
127.1698239778497
 20
107.6606136422378
 30
0.0
 10
127.2590767533505
 20
107.7501839177305
 30
0.0
 10
127.2590767533505
 20
107.8607797482423
 30
0.0
  0
ENDBLK
  5
3BB
330
3B8
100
AcDbEntity
  8
0
100
AcDbBlockEnd
  0
BLOCK
  5
3BF
330
3BD
100
AcDbEntity
  8
0
100
AcDbBlockBegin
  2
block 106
 70
     0
 10
0.0
 20
0.0
 30
0.0
  3
block 106
  1

  0
POLYLINE
  5
3C1
330
3BD
100
AcDbEntity
  8
0
 62
     7
420
 16777215
370
    15
100
AcDb2dPolyline
 66
     1
 10
0.0
 20
0.0
 30
0.0
  0
VERTEX
  5
3C2
330
3C1
100
AcDbEntity
  8
0
 62
     7
420
 16777215
370
    15
100
AcDbVertex
100
AcDb2dVertex
 10
127.0592666349017
 20
107.6606136422378
 30
0.0
  0
VERTEX
  5
3C3
330
3C1
100
AcDbEntity
  8
0
 62
     7
420
 16777215
370
    15
100
AcDbVertex
100
AcDb2dVertex
 10
125.4593456881543
 20
107.6606136422378
 30
0.0
  0
SEQEND
  5
3C4
330
3C1
100
AcDbEntity
  8
0
 62
     7
420
 16777215
370
    15
  0
ENDBLK
  5
3C0
330
3BD
100
AcDbEntity
  8
0
100
AcDbBlockEnd
  0
BLOCK
  5
3C7
330
3C5
100
AcDbEntity
  8
0
100
AcDbBlockBegin
  2
block 107
 70
     0
 10
0.0
 20
0.0
 30
0.0
  3
block 107
  1

  0
SPLINE
  5
3C9
330
3C5
100
AcDbEntity
  8
0
 62
     7
420
 16777215
370
    15
100
AcDbSpline
210
0.0
220
0.0
230
1.0
 70
     8
 71
     3
 72
     8
 73
     4
 74
     0
 42
0.0000000001
 43
0.0000000001
 12
1.0
 22
0.0
 32
0.0
 13
1.0
 23
0.0
 33
0.0
 40
0.0
 40
0.0
 40
0.0
 40
0.0
 40
1.0
 40
1.0
 40
1.0
 40
1.0
 10
125.2591795821499
 20
107.8607797482423
 30
0.0
 10
125.2591795821499
 20
107.7501839177305
 30
0.0
 10
125.3487498576425
 20
107.6606136422378
 30
0.0
 10
125.4593456881543
 20
107.6606136422378
 30
0.0
  0
ENDBLK
  5
3C8
330
3C5
100
AcDbEntity
  8
0
100
AcDbBlockEnd
  0
BLOCK
  5
3CC
330
3CA
100
AcDbEntity
  8
0
100
AcDbBlockBegin
  2
block 108
 70
     0
 10
0.0
 20
0.0
 30
0.0
  3
block 108
  1

  0
POLYLINE
  5
3CE
330
3CA
100
AcDbEntity
  8
0
 62
     7
420
 16777215
370
    15
100
AcDb2dPolyline
 66
     1
 10
0.0
 20
0.0
 30
0.0
  0
VERTEX
  5
3CF
330
3CE
100
AcDbEntity
  8
0
 62
     7
420
 16777215
370
    15
100
AcDbVertex
100
AcDb2dVertex
 10
125.2591795821499
 20
107.8607797482423
 30
0.0
  0
VERTEX
  5
3D0
330
3CE
100
AcDbEntity
  8
0
 62
     7
420
 16777215
370
    15
100
AcDbVertex
100
AcDb2dVertex
 10
125.2591795821499
 20
107.9606864123601
 30
0.0
  0
SEQEND
  5
3D1
330
3CE
100
AcDbEntity
  8
0
 62
     7
420
 16777215
370
    15
  0
ENDBLK
  5
3CD
330
3CA
100
AcDbEntity
  8
0
100
AcDbBlockEnd
  0
BLOCK
  5
3D4
330
3D2
100
AcDbEntity
  8
0
100
AcDbBlockBegin
  2
block 109
 70
     0
 10
0.0
 20
0.0
 30
0.0
  3
block 109
  1

  0
POLYLINE
  5
3D6
330
3D2
100
AcDbEntity
  8
0
 62
     7
420
 16777215
370
    15
100
AcDb2dPolyline
 66
     1
 10
0.0
 20
0.0
 30
0.0
  0
VERTEX
  5
3D7
330
3D6
100
AcDbEntity
  8
0
 62
     7
420
 16777215
370
    15
100
AcDbVertex
100
AcDb2dVertex
 10
131.2591533179667
 20
108.8205822237557
 30
0.0
  0
VERTEX
  5
3D8
330
3D6
100
AcDbEntity
  8
0
 62
     7
420
 16777215
370
    15
100
AcDbVertex
100
AcDb2dVertex
 10
131.2591533179667
 20
107.9606864123601
 30
0.0
  0
SEQEND
  5
3D9
330
3D6
100
AcDbEntity
  8
0
 62
     7
420
 16777215
370
    15
  0
ENDBLK
  5
3D5
330
3D2
100
AcDbEntity
  8
0
100
AcDbBlockEnd
  0
BLOCK
  5
3DC
330
3DA
100
AcDbEntity
  8
0
100
AcDbBlockBegin
  2
block 110
 70
     0
 10
0.0
 20
0.0
 30
0.0
  3
block 110
  1

  0
POLYLINE
  5
3DE
330
3DA
100
AcDbEntity
  8
0
 62
     7
420
 16777215
370
    15
100
AcDb2dPolyline
 66
     1
 10
0.0
 20
0.0
 30
0.0
  0
VERTEX
  5
3DF
330
3DE
100
AcDbEntity
  8
0
 62
     7
420
 16777215
370
    15
100
AcDbVertex
100
AcDb2dVertex
 10
131.2591533179667
 20
107.9606864123601
 30
0.0
  0
VERTEX
  5
3E0
330
3DE
100
AcDbEntity
  8
0
 62
     7
420
 16777215
370
    15
100
AcDbVertex
100
AcDb2dVertex
 10
130.2590636212589
 20
107.9606864123601
 30
0.0
  0
SEQEND
  5
3E1
330
3DE
100
AcDbEntity
  8
0
 62
     7
420
 16777215
370
    15
  0
ENDBLK
  5
3DD
330
3DA
100
AcDbEntity
  8
0
100
AcDbBlockEnd
  0
BLOCK
  5
3E4
330
3E2
100
AcDbEntity
  8
0
100
AcDbBlockBegin
  2
block 111
 70
     0
 10
0.0
 20
0.0
 30
0.0
  3
block 111
  1

  0
POLYLINE
  5
3E6
330
3E2
100
AcDbEntity
  8
0
 62
     7
420
 16777215
370
    15
100
AcDb2dPolyline
 66
     1
 10
0.0
 20
0.0
 30
0.0
  0
VERTEX
  5
3E7
330
3E6
100
AcDbEntity
  8
0
 62
     7
420
 16777215
370
    15
100
AcDbVertex
100
AcDb2dVertex
 10
-8.14574472018573
 20
110.420817460708
 30
0.0
  0
VERTEX
  5
3E8
330
3E6
100
AcDbEntity
  8
0
 62
     7
420
 16777215
370
    15
100
AcDbVertex
100
AcDb2dVertex
 10
241.3540746758779
 20
110.420817460708
 30
0.0
  0
SEQEND
  5
3E9
330
3E6
100
AcDbEntity
  8
0
 62
     7
420
 16777215
370
    15
  0
ENDBLK
  5
3E5
330
3E2
100
AcDbEntity
  8
0
100
AcDbBlockEnd
  0
BLOCK
  5
3EC
330
3EA
100
AcDbEntity
  8
0
100
AcDbBlockBegin
  2
block 112
 70
     0
 10
0.0
 20
0.0
 30
0.0
  3
block 112
  1

  0
POLYLINE
  5
3EE
330
3EA
100
AcDbEntity
  8
0
 62
     7
420
 16777215
370
    15
100
AcDb2dPolyline
 66
     1
 10
0.0
 20
0.0
 30
0.0
  0
VERTEX
  5
3EF
330
3EE
100
AcDbEntity
  8
0
 62
     7
420
 16777215
370
    15
100
AcDbVertex
100
AcDb2dVertex
 10
-4.395752221123262
 20
113.4208043286164
 30
0.0
  0
VERTEX
  5
3F0
330
3EE
100
AcDbEntity
  8
0
 62
     7
420
 16777215
370
    15
100
AcDbVertex
100
AcDb2dVertex
 10
0.1042140833071809
 20
113.4208043286164
 30
0.0
  0
SEQEND
  5
3F1
330
3EE
100
AcDbEntity
  8
0
 62
     7
420
 16777215
370
    15
  0
ENDBLK
  5
3ED
330
3EA
100
AcDbEntity
  8
0
100
AcDbBlockEnd
  0
BLOCK
  5
3F4
330
3F2
100
AcDbEntity
  8
0
100
AcDbBlockBegin
  2
block 113
 70
     0
 10
0.0
 20
0.0
 30
0.0
  3
block 113
  1

  0
POLYLINE
  5
3F6
330
3F2
100
AcDbEntity
  8
0
 62
     7
420
 16777215
370
    15
100
AcDb2dPolyline
 66
     1
 10
0.0
 20
0.0
 30
0.0
  0
VERTEX
  5
3F7
330
3F6
100
AcDbEntity
  8
0
 62
     7
420
 16777215
370
    15
100
AcDbVertex
100
AcDb2dVertex
 10
241.3540746758779
 20
110.420817460708
 30
0.0
  0
VERTEX
  5
3F8
330
3F6
100
AcDbEntity
  8
0
 62
     7
420
 16777215
370
    15
100
AcDbVertex
100
AcDb2dVertex
 10
241.3540746758779
 20
108.8205822237557
 30
0.0
  0
SEQEND
  5
3F9
330
3F6
100
AcDbEntity
  8
0
 62
     7
420
 16777215
370
    15
  0
ENDBLK
  5
3F5
330
3F2
100
AcDbEntity
  8
0
100
AcDbBlockEnd
  0
BLOCK
  5
3FC
330
3FA
100
AcDbEntity
  8
0
100
AcDbBlockBegin
  2
block 114
 70
     0
 10
0.0
 20
0.0
 30
0.0
  3
block 114
  1

  0
POLYLINE
  5
3FE
330
3FA
100
AcDbEntity
  8
0
 62
     7
420
 16777215
370
    15
100
AcDb2dPolyline
 66
     1
 10
0.0
 20
0.0
 30
0.0
  0
VERTEX
  5
3FF
330
3FE
100
AcDbEntity
  8
0
 62
     7
420
 16777215
370
    15
100
AcDbVertex
100
AcDb2dVertex
 10
-8.14574472018573
 20
108.8205822237557
 30
0.0
  0
VERTEX
  5
400
330
3FE
100
AcDbEntity
  8
0
 62
     7
420
 16777215
370
    15
100
AcDbVertex
100
AcDb2dVertex
 10
241.3540746758779
 20
108.8205822237557
 30
0.0
  0
SEQEND
  5
401
330
3FE
100
AcDbEntity
  8
0
 62
     7
420
 16777215
370
    15
  0
ENDBLK
  5
3FD
330
3FA
100
AcDbEntity
  8
0
100
AcDbBlockEnd
  0
BLOCK
  5
576
330
574
100
AcDbEntity
  8
0
100
AcDbBlockBegin
  2
block 115
 70
     0
 10
0.0
 20
0.0
 30
0.0
  3
block 115
  1

  0
POLYLINE
  5
578
330
574
100
AcDbEntity
  8
0
 62
     7
420
 16777215
370
    25
100
AcDb2dPolyline
 66
     1
 10
0.0
 20
0.0
 30
0.0
  0
VERTEX
  5
579
330
578
100
AcDbEntity
  8
0
 62
     7
420
 16777215
370
    25
100
AcDbVertex
100
AcDb2dVertex
 10
-4.395752221123262
 20
113.4208043286164
 30
0.0
  0
VERTEX
  5
57A
330
578
100
AcDbEntity
  8
0
 62
     7
420
 16777215
370
    25
100
AcDbVertex
100
AcDb2dVertex
 10
-4.395752221123262
 20
110.420817460708
 30
0.0
  0
SEQEND
  5
57B
330
578
100
AcDbEntity
  8
0
 62
     7
420
 16777215
370
    25
  0
ENDBLK
  5
577
330
574
100
AcDbEntity
  8
0
100
AcDbBlockEnd
  0
BLOCK
  5
57E
330
57C
100
AcDbEntity
  8
0
100
AcDbBlockBegin
  2
block 116
 70
     0
 10
0.0
 20
0.0
 30
0.0
  3
block 116
  1

  0
POLYLINE
  5
580
330
57C
100
AcDbEntity
  8
0
 62
     7
420
 16777215
370
    25
100
AcDb2dPolyline
 66
     1
 10
0.0
 20
0.0
 30
0.0
  0
VERTEX
  5
581
330
580
100
AcDbEntity
  8
0
 62
     7
420
 16777215
370
    25
100
AcDbVertex
100
AcDb2dVertex
 10
0.1042140833071809
 20
113.4208043286164
 30
0.0
  0
VERTEX
  5
582
330
580
100
AcDbEntity
  8
0
 62
     7
420
 16777215
370
    25
100
AcDbVertex
100
AcDb2dVertex
 10
0.1042140833071809
 20
110.420817460708
 30
0.0
  0
SEQEND
  5
583
330
580
100
AcDbEntity
  8
0
 62
     7
420
 16777215
370
    25
  0
ENDBLK
  5
57F
330
57C
100
AcDbEntity
  8
0
100
AcDbBlockEnd
  0
BLOCK
  5
586
330
584
100
AcDbEntity
  8
0
100
AcDbBlockBegin
  2
block 117
 70
     0
 10
0.0
 20
0.0
 30
0.0
  3
block 117
  1

  0
POLYLINE
  5
588
330
584
100
AcDbEntity
  8
0
 62
     7
420
 16777215
370
    25
100
AcDb2dPolyline
 66
     1
 10
0.0
 20
0.0
 30
0.0
  0
VERTEX
  5
589
330
588
100
AcDbEntity
  8
0
 62
     7
420
 16777215
370
    25
100
AcDbVertex
100
AcDb2dVertex
 10
113.5992746018411
 20
103.0706926482253
 30
0.0
  0
VERTEX
  5
58A
330
588
100
AcDbEntity
  8
0
 62
     7
420
 16777215
370
    25
100
AcDbVertex
100
AcDb2dVertex
 10
110.4490777501658
 20
103.0706926482253
 30
0.0
  0
SEQEND
  5
58B
330
588
100
AcDbEntity
  8
0
 62
     7
420
 16777215
370
    25
  0
ENDBLK
  5
587
330
584
100
AcDbEntity
  8
0
100
AcDbBlockEnd
  0
BLOCK
  5
58E
330
58C
100
AcDbEntity
  8
0
100
AcDbBlockBegin
  2
block 118
 70
     0
 10
0.0
 20
0.0
 30
0.0
  3
block 118
  1

  0
POLYLINE
  5
590
330
58C
100
AcDbEntity
  8
0
 62
     7
420
 16777215
370
    15
100
AcDb2dPolyline
 66
     1
 10
0.0
 20
0.0
 30
0.0
  0
VERTEX
  5
591
330
590
100
AcDbEntity
  8
0
 62
     7
420
 16777215
370
    15
100
AcDbVertex
100
AcDb2dVertex
 10
8.104258053529582
 20
113.4208043286164
 30
0.0
  0
VERTEX
  5
592
330
590
100
AcDbEntity
  8
0
 62
     7
420
 16777215
370
    15
100
AcDbVertex
100
AcDb2dVertex
 10
12.60422083018234
 20
113.4208043286164
 30
0.0
  0
SEQEND
  5
593
330
590
100
AcDbEntity
  8
0
 62
     7
420
 16777215
370
    15
  0
ENDBLK
  5
58F
330
58C
100
AcDbEntity
  8
0
100
AcDbBlockEnd
  0
BLOCK
  5
596
330
594
100
AcDbEntity
  8
0
100
AcDbBlockBegin
  2
block 119
 70
     0
 10
0.0
 20
0.0
 30
0.0
  3
block 119
  1

  0
POLYLINE
  5
598
330
594
100
AcDbEntity
  8
0
 62
     7
420
 16777215
370
    25
100
AcDb2dPolyline
 66
     1
 10
0.0
 20
0.0
 30
0.0
  0
VERTEX
  5
599
330
598
100
AcDbEntity
  8
0
 62
     7
420
 16777215
370
    25
100
AcDbVertex
100
AcDb2dVertex
 10
8.104258053529582
 20
113.4208043286164
 30
0.0
  0
VERTEX
  5
59A
330
598
100
AcDbEntity
  8
0
 62
     7
420
 16777215
370
    25
100
AcDbVertex
100
AcDb2dVertex
 10
8.104258053529582
 20
110.420817460708
 30
0.0
  0
SEQEND
  5
59B
330
598
100
AcDbEntity
  8
0
 62
     7
420
 16777215
370
    25
  0
ENDBLK
  5
597
330
594
100
AcDbEntity
  8
0
100
AcDbBlockEnd
  0
BLOCK
  5
59E
330
59C
100
AcDbEntity
  8
0
100
AcDbBlockBegin
  2
block 120
 70
     0
 10
0.0
 20
0.0
 30
0.0
  3
block 120
  1

  0
POLYLINE
  5
5A0
330
59C
100
AcDbEntity
  8
0
 62
     7
420
 16777215
370
    25
100
AcDb2dPolyline
 66
     1
 10
0.0
 20
0.0
 30
0.0
  0
VERTEX
  5
5A1
330
5A0
100
AcDbEntity
  8
0
 62
     7
420
 16777215
370
    25
100
AcDbVertex
100
AcDb2dVertex
 10
12.60422083018234
 20
113.4208043286164
 30
0.0
  0
VERTEX
  5
5A2
330
5A0
100
AcDbEntity
  8
0
 62
     7
420
 16777215
370
    25
100
AcDbVertex
100
AcDb2dVertex
 10
12.60422083018234
 20
110.420817460708
 30
0.0
  0
SEQEND
  5
5A3
330
5A0
100
AcDbEntity
  8
0
 62
     7
420
 16777215
370
    25
  0
ENDBLK
  5
59F
330
59C
100
AcDbEntity
  8
0
100
AcDbBlockEnd
  0
BLOCK
  5
5A6
330
5A4
100
AcDbEntity
  8
0
100
AcDbBlockBegin
  2
block 121
 70
     0
 10
0.0
 20
0.0
 30
0.0
  3
block 121
  1

  0
POLYLINE
  5
5A8
330
5A4
100
AcDbEntity
  8
0
 62
     7
420
 16777215
370
    15
100
AcDb2dPolyline
 66
     1
 10
0.0
 20
0.0
 30
0.0
  0
VERTEX
  5
5A9
330
5A8
100
AcDbEntity
  8
0
 62
     7
420
 16777215
370
    15
100
AcDbVertex
100
AcDb2dVertex
 10
20.60444471707099
 20
113.4208043286164
 30
0.0
  0
VERTEX
  5
5AA
330
5A8
100
AcDbEntity
  8
0
 62
     7
420
 16777215
370
    15
100
AcDbVertex
100
AcDb2dVertex
 10
25.10440749372374
 20
113.4208043286164
 30
0.0
  0
SEQEND
  5
5AB
330
5A8
100
AcDbEntity
  8
0
 62
     7
420
 16777215
370
    15
  0
ENDBLK
  5
5A7
330
5A4
100
AcDbEntity
  8
0
100
AcDbBlockEnd
  0
BLOCK
  5
5AE
330
5AC
100
AcDbEntity
  8
0
100
AcDbBlockBegin
  2
block 122
 70
     0
 10
0.0
 20
0.0
 30
0.0
  3
block 122
  1

  0
POLYLINE
  5
5B0
330
5AC
100
AcDbEntity
  8
0
 62
     7
420
 16777215
370
    25
100
AcDb2dPolyline
 66
     1
 10
0.0
 20
0.0
 30
0.0
  0
VERTEX
  5
5B1
330
5B0
100
AcDbEntity
  8
0
 62
     7
420
 16777215
370
    25
100
AcDbVertex
100
AcDb2dVertex
 10
20.60444471707099
 20
113.4208043286164
 30
0.0
  0
VERTEX
  5
5B2
330
5B0
100
AcDbEntity
  8
0
 62
     7
420
 16777215
370
    25
100
AcDbVertex
100
AcDb2dVertex
 10
20.60444471707099
 20
110.420817460708
 30
0.0
  0
SEQEND
  5
5B3
330
5B0
100
AcDbEntity
  8
0
 62
     7
420
 16777215
370
    25
  0
ENDBLK
  5
5AF
330
5AC
100
AcDbEntity
  8
0
100
AcDbBlockEnd
  0
BLOCK
  5
5B6
330
5B4
100
AcDbEntity
  8
0
100
AcDbBlockBegin
  2
block 123
 70
     0
 10
0.0
 20
0.0
 30
0.0
  3
block 123
  1

  0
POLYLINE
  5
5B8
330
5B4
100
AcDbEntity
  8
0
 62
     7
420
 16777215
370
    25
100
AcDb2dPolyline
 66
     1
 10
0.0
 20
0.0
 30
0.0
  0
VERTEX
  5
5B9
330
5B8
100
AcDbEntity
  8
0
 62
     7
420
 16777215
370
    25
100
AcDbVertex
100
AcDb2dVertex
 10
25.10440749372374
 20
113.4208043286164
 30
0.0
  0
VERTEX
  5
5BA
330
5B8
100
AcDbEntity
  8
0
 62
     7
420
 16777215
370
    25
100
AcDbVertex
100
AcDb2dVertex
 10
25.10440749372374
 20
110.420817460708
 30
0.0
  0
SEQEND
  5
5BB
330
5B8
100
AcDbEntity
  8
0
 62
     7
420
 16777215
370
    25
  0
ENDBLK
  5
5B7
330
5B4
100
AcDbEntity
  8
0
100
AcDbBlockEnd
  0
BLOCK
  5
5BE
330
5BC
100
AcDbEntity
  8
0
100
AcDbBlockBegin
  2
block 124
 70
     0
 10
0.0
 20
0.0
 30
0.0
  3
block 124
  1

  0
POLYLINE
  5
5C0
330
5BC
100
AcDbEntity
  8
0
 62
     7
420
 16777215
370
    15
100
AcDb2dPolyline
 66
     1
 10
0.0
 20
0.0
 30
0.0
  0
VERTEX
  5
5C1
330
5C0
100
AcDbEntity
  8
0
 62
     7
420
 16777215
370
    15
100
AcDbVertex
100
AcDb2dVertex
 10
33.10427860283495
 20
113.4208043286164
 30
0.0
  0
VERTEX
  5
5C2
330
5C0
100
AcDbEntity
  8
0
 62
     7
420
 16777215
370
    15
100
AcDbVertex
100
AcDb2dVertex
 10
37.60424042952479
 20
113.4208043286164
 30
0.0
  0
SEQEND
  5
5C3
330
5C0
100
AcDbEntity
  8
0
 62
     7
420
 16777215
370
    15
  0
ENDBLK
  5
5BF
330
5BC
100
AcDbEntity
  8
0
100
AcDbBlockEnd
  0
BLOCK
  5
5C6
330
5C4
100
AcDbEntity
  8
0
100
AcDbBlockBegin
  2
block 125
 70
     0
 10
0.0
 20
0.0
 30
0.0
  3
block 125
  1

  0
POLYLINE
  5
5C8
330
5C4
100
AcDbEntity
  8
0
 62
     7
420
 16777215
370
    25
100
AcDb2dPolyline
 66
     1
 10
0.0
 20
0.0
 30
0.0
  0
VERTEX
  5
5C9
330
5C8
100
AcDbEntity
  8
0
 62
     7
420
 16777215
370
    25
100
AcDbVertex
100
AcDb2dVertex
 10
33.10427860283495
 20
113.4208043286164
 30
0.0
  0
VERTEX
  5
5CA
330
5C8
100
AcDbEntity
  8
0
 62
     7
420
 16777215
370
    25
100
AcDbVertex
100
AcDb2dVertex
 10
33.10427860283495
 20
110.420817460708
 30
0.0
  0
SEQEND
  5
5CB
330
5C8
100
AcDbEntity
  8
0
 62
     7
420
 16777215
370
    25
  0
ENDBLK
  5
5C7
330
5C4
100
AcDbEntity
  8
0
100
AcDbBlockEnd
  0
BLOCK
  5
5CE
330
5CC
100
AcDbEntity
  8
0
100
AcDbBlockBegin
  2
block 126
 70
     0
 10
0.0
 20
0.0
 30
0.0
  3
block 126
  1

  0
POLYLINE
  5
5D0
330
5CC
100
AcDbEntity
  8
0
 62
     7
420
 16777215
370
    25
100
AcDb2dPolyline
 66
     1
 10
0.0
 20
0.0
 30
0.0
  0
VERTEX
  5
5D1
330
5D0
100
AcDbEntity
  8
0
 62
     7
420
 16777215
370
    25
100
AcDbVertex
100
AcDb2dVertex
 10
37.60424042952479
 20
113.4208043286164
 30
0.0
  0
VERTEX
  5
5D2
330
5D0
100
AcDbEntity
  8
0
 62
     7
420
 16777215
370
    25
100
AcDbVertex
100
AcDb2dVertex
 10
37.60424042952479
 20
110.420817460708
 30
0.0
  0
SEQEND
  5
5D3
330
5D0
100
AcDbEntity
  8
0
 62
     7
420
 16777215
370
    25
  0
ENDBLK
  5
5CF
330
5CC
100
AcDbEntity
  8
0
100
AcDbBlockEnd
  0
BLOCK
  5
5D6
330
5D4
100
AcDbEntity
  8
0
100
AcDbBlockBegin
  2
block 127
 70
     0
 10
0.0
 20
0.0
 30
0.0
  3
block 127
  1

  0
POLYLINE
  5
5D8
330
5D4
100
AcDbEntity
  8
0
 62
     7
420
 16777215
370
    15
100
AcDb2dPolyline
 66
     1
 10
0.0
 20
0.0
 30
0.0
  0
VERTEX
  5
5D9
330
5D8
100
AcDbEntity
  8
0
 62
     7
420
 16777215
370
    15
100
AcDbVertex
100
AcDb2dVertex
 10
45.60411133654219
 20
113.4208043286164
 30
0.0
  0
VERTEX
  5
5DA
330
5D8
100
AcDbEntity
  8
0
 62
     7
420
 16777215
370
    15
100
AcDbVertex
100
AcDb2dVertex
 10
50.10407399951636
 20
113.4208043286164
 30
0.0
  0
SEQEND
  5
5DB
330
5D8
100
AcDbEntity
  8
0
 62
     7
420
 16777215
370
    15
  0
ENDBLK
  5
5D7
330
5D4
100
AcDbEntity
  8
0
100
AcDbBlockEnd
  0
BLOCK
  5
5DE
330
5DC
100
AcDbEntity
  8
0
100
AcDbBlockBegin
  2
block 128
 70
     0
 10
0.0
 20
0.0
 30
0.0
  3
block 128
  1

  0
POLYLINE
  5
5E0
330
5DC
100
AcDbEntity
  8
0
 62
     7
420
 16777215
370
    25
100
AcDb2dPolyline
 66
     1
 10
0.0
 20
0.0
 30
0.0
  0
VERTEX
  5
5E1
330
5E0
100
AcDbEntity
  8
0
 62
     7
420
 16777215
370
    25
100
AcDbVertex
100
AcDb2dVertex
 10
45.60411133654219
 20
113.4208043286164
 30
0.0
  0
VERTEX
  5
5E2
330
5E0
100
AcDbEntity
  8
0
 62
     7
420
 16777215
370
    25
100
AcDbVertex
100
AcDb2dVertex
 10
45.60411133654219
 20
110.420817460708
 30
0.0
  0
SEQEND
  5
5E3
330
5E0
100
AcDbEntity
  8
0
 62
     7
420
 16777215
370
    25
  0
ENDBLK
  5
5DF
330
5DC
100
AcDbEntity
  8
0
100
AcDbBlockEnd
  0
BLOCK
  5
5E6
330
5E4
100
AcDbEntity
  8
0
100
AcDbBlockBegin
  2
block 129
 70
     0
 10
0.0
 20
0.0
 30
0.0
  3
block 129
  1

  0
POLYLINE
  5
5E8
330
5E4
100
AcDbEntity
  8
0
 62
     7
420
 16777215
370
    25
100
AcDb2dPolyline
 66
     1
 10
0.0
 20
0.0
 30
0.0
  0
VERTEX
  5
5E9
330
5E8
100
AcDbEntity
  8
0
 62
     7
420
 16777215
370
    25
100
AcDbVertex
100
AcDb2dVertex
 10
50.10407399951636
 20
113.4208043286164
 30
0.0
  0
VERTEX
  5
5EA
330
5E8
100
AcDbEntity
  8
0
 62
     7
420
 16777215
370
    25
100
AcDbVertex
100
AcDb2dVertex
 10
50.10407399951636
 20
110.420817460708
 30
0.0
  0
SEQEND
  5
5EB
330
5E8
100
AcDbEntity
  8
0
 62
     7
420
 16777215
370
    25
  0
ENDBLK
  5
5E7
330
5E4
100
AcDbEntity
  8
0
100
AcDbBlockEnd
  0
BLOCK
  5
5EE
330
5EC
100
AcDbEntity
  8
0
100
AcDbBlockBegin
  2
block 130
 70
     0
 10
0.0
 20
0.0
 30
0.0
  3
block 130
  1

  0
POLYLINE
  5
5F0
330
5EC
100
AcDbEntity
  8
0
 62
     7
420
 16777215
370
    15
100
AcDb2dPolyline
 66
     1
 10
0.0
 20
0.0
 30
0.0
  0
VERTEX
  5
5F1
330
5F0
100
AcDbEntity
  8
0
 62
     7
420
 16777215
370
    15
100
AcDbVertex
100
AcDb2dVertex
 10
58.10429768430254
 20
113.4208043286164
 30
0.0
  0
VERTEX
  5
5F2
330
5F0
100
AcDbEntity
  8
0
 62
     7
420
 16777215
370
    15
100
AcDbVertex
100
AcDb2dVertex
 10
62.6042603472767
 20
113.4208043286164
 30
0.0
  0
SEQEND
  5
5F3
330
5F0
100
AcDbEntity
  8
0
 62
     7
420
 16777215
370
    15
  0
ENDBLK
  5
5EF
330
5EC
100
AcDbEntity
  8
0
100
AcDbBlockEnd
  0
BLOCK
  5
5F6
330
5F4
100
AcDbEntity
  8
0
100
AcDbBlockBegin
  2
block 131
 70
     0
 10
0.0
 20
0.0
 30
0.0
  3
block 131
  1

  0
POLYLINE
  5
5F8
330
5F4
100
AcDbEntity
  8
0
 62
     7
420
 16777215
370
    25
100
AcDb2dPolyline
 66
     1
 10
0.0
 20
0.0
 30
0.0
  0
VERTEX
  5
5F9
330
5F8
100
AcDbEntity
  8
0
 62
     7
420
 16777215
370
    25
100
AcDbVertex
100
AcDb2dVertex
 10
58.10429768430254
 20
113.4208043286164
 30
0.0
  0
VERTEX
  5
5FA
330
5F8
100
AcDbEntity
  8
0
 62
     7
420
 16777215
370
    25
100
AcDbVertex
100
AcDb2dVertex
 10
58.10429768430254
 20
110.420817460708
 30
0.0
  0
SEQEND
  5
5FB
330
5F8
100
AcDbEntity
  8
0
 62
     7
420
 16777215
370
    25
  0
ENDBLK
  5
5F7
330
5F4
100
AcDbEntity
  8
0
100
AcDbBlockEnd
  0
BLOCK
  5
5FE
330
5FC
100
AcDbEntity
  8
0
100
AcDbBlockBegin
  2
block 132
 70
     0
 10
0.0
 20
0.0
 30
0.0
  3
block 132
  1

  0
POLYLINE
  5
600
330
5FC
100
AcDbEntity
  8
0
 62
     7
420
 16777215
370
    25
100
AcDb2dPolyline
 66
     1
 10
0.0
 20
0.0
 30
0.0
  0
VERTEX
  5
601
330
600
100
AcDbEntity
  8
0
 62
     7
420
 16777215
370
    25
100
AcDbVertex
100
AcDb2dVertex
 10
62.6042603472767
 20
113.4208043286164
 30
0.0
  0
VERTEX
  5
602
330
600
100
AcDbEntity
  8
0
 62
     7
420
 16777215
370
    25
100
AcDbVertex
100
AcDb2dVertex
 10
62.6042603472767
 20
110.420817460708
 30
0.0
  0
SEQEND
  5
603
330
600
100
AcDbEntity
  8
0
 62
     7
420
 16777215
370
    25
  0
ENDBLK
  5
5FF
330
5FC
100
AcDbEntity
  8
0
100
AcDbBlockEnd
  0
BLOCK
  5
606
330
604
100
AcDbEntity
  8
0
100
AcDbBlockBegin
  2
block 133
 70
     0
 10
0.0
 20
0.0
 30
0.0
  3
block 133
  1

  0
POLYLINE
  5
608
330
604
100
AcDbEntity
  8
0
 62
     7
420
 16777215
370
    15
100
AcDb2dPolyline
 66
     1
 10
0.0
 20
0.0
 30
0.0
  0
VERTEX
  5
609
330
608
100
AcDbEntity
  8
0
 62
     7
420
 16777215
370
    15
100
AcDbVertex
100
AcDb2dVertex
 10
70.60448403206289
 20
113.4208043286164
 30
0.0
  0
VERTEX
  5
60A
330
608
100
AcDbEntity
  8
0
 62
     7
420
 16777215
370
    15
100
AcDbVertex
100
AcDb2dVertex
 10
75.10444669503704
 20
113.4208043286164
 30
0.0
  0
SEQEND
  5
60B
330
608
100
AcDbEntity
  8
0
 62
     7
420
 16777215
370
    15
  0
ENDBLK
  5
607
330
604
100
AcDbEntity
  8
0
100
AcDbBlockEnd
  0
BLOCK
  5
60E
330
60C
100
AcDbEntity
  8
0
100
AcDbBlockBegin
  2
block 134
 70
     0
 10
0.0
 20
0.0
 30
0.0
  3
block 134
  1

  0
POLYLINE
  5
610
330
60C
100
AcDbEntity
  8
0
 62
     7
420
 16777215
370
    25
100
AcDb2dPolyline
 66
     1
 10
0.0
 20
0.0
 30
0.0
  0
VERTEX
  5
611
330
610
100
AcDbEntity
  8
0
 62
     7
420
 16777215
370
    25
100
AcDbVertex
100
AcDb2dVertex
 10
70.60448403206289
 20
113.4208043286164
 30
0.0
  0
VERTEX
  5
612
330
610
100
AcDbEntity
  8
0
 62
     7
420
 16777215
370
    25
100
AcDbVertex
100
AcDb2dVertex
 10
70.60448403206289
 20
110.420817460708
 30
0.0
  0
SEQEND
  5
613
330
610
100
AcDbEntity
  8
0
 62
     7
420
 16777215
370
    25
  0
ENDBLK
  5
60F
330
60C
100
AcDbEntity
  8
0
100
AcDbBlockEnd
  0
BLOCK
  5
616
330
614
100
AcDbEntity
  8
0
100
AcDbBlockBegin
  2
block 135
 70
     0
 10
0.0
 20
0.0
 30
0.0
  3
block 135
  1

  0
POLYLINE
  5
618
330
614
100
AcDbEntity
  8
0
 62
     7
420
 16777215
370
    25
100
AcDb2dPolyline
 66
     1
 10
0.0
 20
0.0
 30
0.0
  0
VERTEX
  5
619
330
618
100
AcDbEntity
  8
0
 62
     7
420
 16777215
370
    25
100
AcDbVertex
100
AcDb2dVertex
 10
75.10444669503704
 20
113.4208043286164
 30
0.0
  0
VERTEX
  5
61A
330
618
100
AcDbEntity
  8
0
 62
     7
420
 16777215
370
    25
100
AcDbVertex
100
AcDb2dVertex
 10
75.10444669503704
 20
110.420817460708
 30
0.0
  0
SEQEND
  5
61B
330
618
100
AcDbEntity
  8
0
 62
     7
420
 16777215
370
    25
  0
ENDBLK
  5
617
330
614
100
AcDbEntity
  8
0
100
AcDbBlockEnd
  0
BLOCK
  5
61E
330
61C
100
AcDbEntity
  8
0
100
AcDbBlockBegin
  2
block 136
 70
     0
 10
0.0
 20
0.0
 30
0.0
  3
block 136
  1

  0
POLYLINE
  5
620
330
61C
100
AcDbEntity
  8
0
 62
     7
420
 16777215
370
    15
100
AcDb2dPolyline
 66
     1
 10
0.0
 20
0.0
 30
0.0
  0
VERTEX
  5
621
330
620
100
AcDbEntity
  8
0
 62
     7
420
 16777215
370
    15
100
AcDbVertex
100
AcDb2dVertex
 10
83.10396482428567
 20
113.4208043286164
 30
0.0
  0
VERTEX
  5
622
330
620
100
AcDbEntity
  8
0
 62
     7
420
 16777215
370
    15
100
AcDbVertex
100
AcDb2dVertex
 10
87.6042802650286
 20
113.4208043286164
 30
0.0
  0
SEQEND
  5
623
330
620
100
AcDbEntity
  8
0
 62
     7
420
 16777215
370
    15
  0
ENDBLK
  5
61F
330
61C
100
AcDbEntity
  8
0
100
AcDbBlockEnd
  0
BLOCK
  5
626
330
624
100
AcDbEntity
  8
0
100
AcDbBlockBegin
  2
block 137
 70
     0
 10
0.0
 20
0.0
 30
0.0
  3
block 137
  1

  0
POLYLINE
  5
628
330
624
100
AcDbEntity
  8
0
 62
     7
420
 16777215
370
    25
100
AcDb2dPolyline
 66
     1
 10
0.0
 20
0.0
 30
0.0
  0
VERTEX
  5
629
330
628
100
AcDbEntity
  8
0
 62
     7
420
 16777215
370
    25
100
AcDbVertex
100
AcDb2dVertex
 10
83.10396482428567
 20
113.4208043286164
 30
0.0
  0
VERTEX
  5
62A
330
628
100
AcDbEntity
  8
0
 62
     7
420
 16777215
370
    25
100
AcDbVertex
100
AcDb2dVertex
 10
83.10396482428567
 20
110.420817460708
 30
0.0
  0
SEQEND
  5
62B
330
628
100
AcDbEntity
  8
0
 62
     7
420
 16777215
370
    25
  0
ENDBLK
  5
627
330
624
100
AcDbEntity
  8
0
100
AcDbBlockEnd
  0
BLOCK
  5
62E
330
62C
100
AcDbEntity
  8
0
100
AcDbBlockBegin
  2
block 138
 70
     0
 10
0.0
 20
0.0
 30
0.0
  3
block 138
  1

  0
POLYLINE
  5
630
330
62C
100
AcDbEntity
  8
0
 62
     7
420
 16777215
370
    25
100
AcDb2dPolyline
 66
     1
 10
0.0
 20
0.0
 30
0.0
  0
VERTEX
  5
631
330
630
100
AcDbEntity
  8
0
 62
     7
420
 16777215
370
    25
100
AcDbVertex
100
AcDb2dVertex
 10
87.6042802650286
 20
113.4208043286164
 30
0.0
  0
VERTEX
  5
632
330
630
100
AcDbEntity
  8
0
 62
     7
420
 16777215
370
    25
100
AcDbVertex
100
AcDb2dVertex
 10
87.6042802650286
 20
110.420817460708
 30
0.0
  0
SEQEND
  5
633
330
630
100
AcDbEntity
  8
0
 62
     7
420
 16777215
370
    25
  0
ENDBLK
  5
62F
330
62C
100
AcDbEntity
  8
0
100
AcDbBlockEnd
  0
BLOCK
  5
636
330
634
100
AcDbEntity
  8
0
100
AcDbBlockBegin
  2
block 139
 70
     0
 10
0.0
 20
0.0
 30
0.0
  3
block 139
  1

  0
POLYLINE
  5
638
330
634
100
AcDbEntity
  8
0
 62
     7
420
 16777215
370
    15
100
AcDb2dPolyline
 66
     1
 10
0.0
 20
0.0
 30
0.0
  0
VERTEX
  5
639
330
638
100
AcDbEntity
  8
0
 62
     7
420
 16777215
370
    15
100
AcDbVertex
100
AcDb2dVertex
 10
95.60415117204602
 20
113.4208043286164
 30
0.0
  0
VERTEX
  5
63A
330
638
100
AcDbEntity
  8
0
 62
     7
420
 16777215
370
    15
100
AcDbVertex
100
AcDb2dVertex
 10
100.1041491127971
 20
113.4208043286164
 30
0.0
  0
SEQEND
  5
63B
330
638
100
AcDbEntity
  8
0
 62
     7
420
 16777215
370
    15
  0
ENDBLK
  5
637
330
634
100
AcDbEntity
  8
0
100
AcDbBlockEnd
  0
BLOCK
  5
63E
330
63C
100
AcDbEntity
  8
0
100
AcDbBlockBegin
  2
block 140
 70
     0
 10
0.0
 20
0.0
 30
0.0
  3
block 140
  1

  0
POLYLINE
  5
640
330
63C
100
AcDbEntity
  8
0
 62
     7
420
 16777215
370
    25
100
AcDb2dPolyline
 66
     1
 10
0.0
 20
0.0
 30
0.0
  0
VERTEX
  5
641
330
640
100
AcDbEntity
  8
0
 62
     7
420
 16777215
370
    25
100
AcDbVertex
100
AcDb2dVertex
 10
95.60415117204602
 20
113.4208043286164
 30
0.0
  0
VERTEX
  5
642
330
640
100
AcDbEntity
  8
0
 62
     7
420
 16777215
370
    25
100
AcDbVertex
100
AcDb2dVertex
 10
95.60415117204602
 20
110.420817460708
 30
0.0
  0
SEQEND
  5
643
330
640
100
AcDbEntity
  8
0
 62
     7
420
 16777215
370
    25
  0
ENDBLK
  5
63F
330
63C
100
AcDbEntity
  8
0
100
AcDbBlockEnd
  0
BLOCK
  5
646
330
644
100
AcDbEntity
  8
0
100
AcDbBlockBegin
  2
block 141
 70
     0
 10
0.0
 20
0.0
 30
0.0
  3
block 141
  1

  0
POLYLINE
  5
648
330
644
100
AcDbEntity
  8
0
 62
     7
420
 16777215
370
    25
100
AcDb2dPolyline
 66
     1
 10
0.0
 20
0.0
 30
0.0
  0
VERTEX
  5
649
330
648
100
AcDbEntity
  8
0
 62
     7
420
 16777215
370
    25
100
AcDbVertex
100
AcDb2dVertex
 10
100.1041491127971
 20
113.4208043286164
 30
0.0
  0
VERTEX
  5
64A
330
648
100
AcDbEntity
  8
0
 62
     7
420
 16777215
370
    25
100
AcDbVertex
100
AcDb2dVertex
 10
100.1041491127971
 20
110.420817460708
 30
0.0
  0
SEQEND
  5
64B
330
648
100
AcDbEntity
  8
0
 62
     7
420
 16777215
370
    25
  0
ENDBLK
  5
647
330
644
100
AcDbEntity
  8
0
100
AcDbBlockEnd
  0
BLOCK
  5
64E
330
64C
100
AcDbEntity
  8
0
100
AcDbBlockBegin
  2
block 142
 70
     0
 10
0.0
 20
0.0
 30
0.0
  3
block 142
  1

  0
POLYLINE
  5
650
330
64C
100
AcDbEntity
  8
0
 62
     7
420
 16777215
370
    15
100
AcDb2dPolyline
 66
     1
 10
0.0
 20
0.0
 30
0.0
  0
VERTEX
  5
651
330
650
100
AcDbEntity
  8
0
 62
     7
420
 16777215
370
    15
100
AcDbVertex
100
AcDb2dVertex
 10
108.1043375198064
 20
113.4208043286164
 30
0.0
  0
VERTEX
  5
652
330
650
100
AcDbEntity
  8
0
 62
     7
420
 16777215
370
    15
100
AcDbVertex
100
AcDb2dVertex
 10
112.6043354605574
 20
113.4208043286164
 30
0.0
  0
SEQEND
  5
653
330
650
100
AcDbEntity
  8
0
 62
     7
420
 16777215
370
    15
  0
ENDBLK
  5
64F
330
64C
100
AcDbEntity
  8
0
100
AcDbBlockEnd
  0
BLOCK
  5
656
330
654
100
AcDbEntity
  8
0
100
AcDbBlockBegin
  2
block 143
 70
     0
 10
0.0
 20
0.0
 30
0.0
  3
block 143
  1

  0
POLYLINE
  5
658
330
654
100
AcDbEntity
  8
0
 62
     7
420
 16777215
370
    25
100
AcDb2dPolyline
 66
     1
 10
0.0
 20
0.0
 30
0.0
  0
VERTEX
  5
659
330
658
100
AcDbEntity
  8
0
 62
     7
420
 16777215
370
    25
100
AcDbVertex
100
AcDb2dVertex
 10
108.1043375198064
 20
113.4208043286164
 30
0.0
  0
VERTEX
  5
65A
330
658
100
AcDbEntity
  8
0
 62
     7
420
 16777215
370
    25
100
AcDbVertex
100
AcDb2dVertex
 10
108.1043375198064
 20
110.420817460708
 30
0.0
  0
SEQEND
  5
65B
330
658
100
AcDbEntity
  8
0
 62
     7
420
 16777215
370
    25
  0
ENDBLK
  5
657
330
654
100
AcDbEntity
  8
0
100
AcDbBlockEnd
  0
BLOCK
  5
65E
330
65C
100
AcDbEntity
  8
0
100
AcDbBlockBegin
  2
block 144
 70
     0
 10
0.0
 20
0.0
 30
0.0
  3
block 144
  1

  0
POLYLINE
  5
660
330
65C
100
AcDbEntity
  8
0
 62
     7
420
 16777215
370
    25
100
AcDb2dPolyline
 66
     1
 10
0.0
 20
0.0
 30
0.0
  0
VERTEX
  5
661
330
660
100
AcDbEntity
  8
0
 62
     7
420
 16777215
370
    25
100
AcDbVertex
100
AcDb2dVertex
 10
112.6043354605574
 20
113.4208043286164
 30
0.0
  0
VERTEX
  5
662
330
660
100
AcDbEntity
  8
0
 62
     7
420
 16777215
370
    25
100
AcDbVertex
100
AcDb2dVertex
 10
112.6043354605574
 20
110.420817460708
 30
0.0
  0
SEQEND
  5
663
330
660
100
AcDbEntity
  8
0
 62
     7
420
 16777215
370
    25
  0
ENDBLK
  5
65F
330
65C
100
AcDbEntity
  8
0
100
AcDbBlockEnd
  0
BLOCK
  5
666
330
664
100
AcDbEntity
  8
0
100
AcDbBlockBegin
  2
block 145
 70
     0
 10
0.0
 20
0.0
 30
0.0
  3
block 145
  1

  0
POLYLINE
  5
668
330
664
100
AcDbEntity
  8
0
 62
     7
420
 16777215
370
    15
100
AcDb2dPolyline
 66
     1
 10
0.0
 20
0.0
 30
0.0
  0
VERTEX
  5
669
330
668
100
AcDbEntity
  8
0
 62
     7
420
 16777215
370
    15
100
AcDbVertex
100
AcDb2dVertex
 10
120.6041710897979
 20
113.4208043286164
 30
0.0
  0
VERTEX
  5
66A
330
668
100
AcDbEntity
  8
0
 62
     7
420
 16777215
370
    15
100
AcDbVertex
100
AcDb2dVertex
 10
125.1041721909463
 20
113.4208043286164
 30
0.0
  0
SEQEND
  5
66B
330
668
100
AcDbEntity
  8
0
 62
     7
420
 16777215
370
    15
  0
ENDBLK
  5
667
330
664
100
AcDbEntity
  8
0
100
AcDbBlockEnd
  0
BLOCK
  5
66E
330
66C
100
AcDbEntity
  8
0
100
AcDbBlockBegin
  2
block 146
 70
     0
 10
0.0
 20
0.0
 30
0.0
  3
block 146
  1

  0
POLYLINE
  5
670
330
66C
100
AcDbEntity
  8
0
 62
     7
420
 16777215
370
    25
100
AcDb2dPolyline
 66
     1
 10
0.0
 20
0.0
 30
0.0
  0
VERTEX
  5
671
330
670
100
AcDbEntity
  8
0
 62
     7
420
 16777215
370
    25
100
AcDbVertex
100
AcDb2dVertex
 10
120.6041710897979
 20
113.4208043286164
 30
0.0
  0
VERTEX
  5
672
330
670
100
AcDbEntity
  8
0
 62
     7
420
 16777215
370
    25
100
AcDbVertex
100
AcDb2dVertex
 10
120.6041710897979
 20
110.420817460708
 30
0.0
  0
SEQEND
  5
673
330
670
100
AcDbEntity
  8
0
 62
     7
420
 16777215
370
    25
  0
ENDBLK
  5
66F
330
66C
100
AcDbEntity
  8
0
100
AcDbBlockEnd
  0
BLOCK
  5
676
330
674
100
AcDbEntity
  8
0
100
AcDbBlockBegin
  2
block 147
 70
     0
 10
0.0
 20
0.0
 30
0.0
  3
block 147
  1

  0
POLYLINE
  5
678
330
674
100
AcDbEntity
  8
0
 62
     7
420
 16777215
370
    25
100
AcDb2dPolyline
 66
     1
 10
0.0
 20
0.0
 30
0.0
  0
VERTEX
  5
679
330
678
100
AcDbEntity
  8
0
 62
     7
420
 16777215
370
    25
100
AcDbVertex
100
AcDb2dVertex
 10
125.1041721909463
 20
113.4208043286164
 30
0.0
  0
VERTEX
  5
67A
330
678
100
AcDbEntity
  8
0
 62
     7
420
 16777215
370
    25
100
AcDbVertex
100
AcDb2dVertex
 10
125.1041721909463
 20
110.420817460708
 30
0.0
  0
SEQEND
  5
67B
330
678
100
AcDbEntity
  8
0
 62
     7
420
 16777215
370
    25
  0
ENDBLK
  5
677
330
674
100
AcDbEntity
  8
0
100
AcDbBlockEnd
  0
BLOCK
  5
67E
330
67C
100
AcDbEntity
  8
0
100
AcDbBlockBegin
  2
block 148
 70
     0
 10
0.0
 20
0.0
 30
0.0
  3
block 148
  1

  0
POLYLINE
  5
680
330
67C
100
AcDbEntity
  8
0
 62
     7
420
 16777215
370
    15
100
AcDb2dPolyline
 66
     1
 10
0.0
 20
0.0
 30
0.0
  0
VERTEX
  5
681
330
680
100
AcDbEntity
  8
0
 62
     7
420
 16777215
370
    15
100
AcDbVertex
100
AcDb2dVertex
 10
133.1043574375583
 20
113.4208043286164
 30
0.0
  0
VERTEX
  5
682
330
680
100
AcDbEntity
  8
0
 62
     7
420
 16777215
370
    15
100
AcDbVertex
100
AcDb2dVertex
 10
137.6043553783093
 20
113.4208043286164
 30
0.0
  0
SEQEND
  5
683
330
680
100
AcDbEntity
  8
0
 62
     7
420
 16777215
370
    15
  0
ENDBLK
  5
67F
330
67C
100
AcDbEntity
  8
0
100
AcDbBlockEnd
  0
BLOCK
  5
686
330
684
100
AcDbEntity
  8
0
100
AcDbBlockBegin
  2
block 149
 70
     0
 10
0.0
 20
0.0
 30
0.0
  3
block 149
  1

  0
POLYLINE
  5
688
330
684
100
AcDbEntity
  8
0
 62
     7
420
 16777215
370
    25
100
AcDb2dPolyline
 66
     1
 10
0.0
 20
0.0
 30
0.0
  0
VERTEX
  5
689
330
688
100
AcDbEntity
  8
0
 62
     7
420
 16777215
370
    25
100
AcDbVertex
100
AcDb2dVertex
 10
133.1043574375583
 20
113.4208043286164
 30
0.0
  0
VERTEX
  5
68A
330
688
100
AcDbEntity
  8
0
 62
     7
420
 16777215
370
    25
100
AcDbVertex
100
AcDb2dVertex
 10
133.1043574375583
 20
110.420817460708
 30
0.0
  0
SEQEND
  5
68B
330
688
100
AcDbEntity
  8
0
 62
     7
420
 16777215
370
    25
  0
ENDBLK
  5
687
330
684
100
AcDbEntity
  8
0
100
AcDbBlockEnd
  0
BLOCK
  5
68E
330
68C
100
AcDbEntity
  8
0
100
AcDbBlockBegin
  2
block 150
 70
     0
 10
0.0
 20
0.0
 30
0.0
  3
block 150
  1

  0
POLYLINE
  5
690
330
68C
100
AcDbEntity
  8
0
 62
     7
420
 16777215
370
    25
100
AcDb2dPolyline
 66
     1
 10
0.0
 20
0.0
 30
0.0
  0
VERTEX
  5
691
330
690
100
AcDbEntity
  8
0
 62
     7
420
 16777215
370
    25
100
AcDbVertex
100
AcDb2dVertex
 10
137.6043553783093
 20
113.4208043286164
 30
0.0
  0
VERTEX
  5
692
330
690
100
AcDbEntity
  8
0
 62
     7
420
 16777215
370
    25
100
AcDbVertex
100
AcDb2dVertex
 10
137.6043553783093
 20
110.420817460708
 30
0.0
  0
SEQEND
  5
693
330
690
100
AcDbEntity
  8
0
 62
     7
420
 16777215
370
    25
  0
ENDBLK
  5
68F
330
68C
100
AcDbEntity
  8
0
100
AcDbBlockEnd
  0
BLOCK
  5
696
330
694
100
AcDbEntity
  8
0
100
AcDbBlockBegin
  2
block 151
 70
     0
 10
0.0
 20
0.0
 30
0.0
  3
block 151
  1

  0
POLYLINE
  5
698
330
694
100
AcDbEntity
  8
0
 62
     7
420
 16777215
370
    15
100
AcDb2dPolyline
 66
     1
 10
0.0
 20
0.0
 30
0.0
  0
VERTEX
  5
699
330
698
100
AcDbEntity
  8
0
 62
     7
420
 16777215
370
    15
100
AcDbVertex
100
AcDb2dVertex
 10
145.6041910075498
 20
113.4208043286164
 30
0.0
  0
VERTEX
  5
69A
330
698
100
AcDbEntity
  8
0
 62
     7
420
 16777215
370
    15
100
AcDbVertex
100
AcDb2dVertex
 10
150.1041889483009
 20
113.4208043286164
 30
0.0
  0
SEQEND
  5
69B
330
698
100
AcDbEntity
  8
0
 62
     7
420
 16777215
370
    15
  0
ENDBLK
  5
697
330
694
100
AcDbEntity
  8
0
100
AcDbBlockEnd
  0
BLOCK
  5
69E
330
69C
100
AcDbEntity
  8
0
100
AcDbBlockBegin
  2
block 152
 70
     0
 10
0.0
 20
0.0
 30
0.0
  3
block 152
  1

  0
POLYLINE
  5
6A0
330
69C
100
AcDbEntity
  8
0
 62
     7
420
 16777215
370
    25
100
AcDb2dPolyline
 66
     1
 10
0.0
 20
0.0
 30
0.0
  0
VERTEX
  5
6A1
330
6A0
100
AcDbEntity
  8
0
 62
     7
420
 16777215
370
    25
100
AcDbVertex
100
AcDb2dVertex
 10
145.6041910075498
 20
113.4208043286164
 30
0.0
  0
VERTEX
  5
6A2
330
6A0
100
AcDbEntity
  8
0
 62
     7
420
 16777215
370
    25
100
AcDbVertex
100
AcDb2dVertex
 10
145.6041910075498
 20
110.420817460708
 30
0.0
  0
SEQEND
  5
6A3
330
6A0
100
AcDbEntity
  8
0
 62
     7
420
 16777215
370
    25
  0
ENDBLK
  5
69F
330
69C
100
AcDbEntity
  8
0
100
AcDbBlockEnd
  0
BLOCK
  5
6A6
330
6A4
100
AcDbEntity
  8
0
100
AcDbBlockBegin
  2
block 153
 70
     0
 10
0.0
 20
0.0
 30
0.0
  3
block 153
  1

  0
POLYLINE
  5
6A8
330
6A4
100
AcDbEntity
  8
0
 62
     7
420
 16777215
370
    25
100
AcDb2dPolyline
 66
     1
 10
0.0
 20
0.0
 30
0.0
  0
VERTEX
  5
6A9
330
6A8
100
AcDbEntity
  8
0
 62
     7
420
 16777215
370
    25
100
AcDbVertex
100
AcDb2dVertex
 10
150.1041889483009
 20
113.4208043286164
 30
0.0
  0
VERTEX
  5
6AA
330
6A8
100
AcDbEntity
  8
0
 62
     7
420
 16777215
370
    25
100
AcDbVertex
100
AcDb2dVertex
 10
150.1041889483009
 20
110.420817460708
 30
0.0
  0
SEQEND
  5
6AB
330
6A8
100
AcDbEntity
  8
0
 62
     7
420
 16777215
370
    25
  0
ENDBLK
  5
6A7
330
6A4
100
AcDbEntity
  8
0
100
AcDbBlockEnd
  0
BLOCK
  5
6AE
330
6AC
100
AcDbEntity
  8
0
100
AcDbBlockBegin
  2
block 154
 70
     0
 10
0.0
 20
0.0
 30
0.0
  3
block 154
  1

  0
POLYLINE
  5
6B0
330
6AC
100
AcDbEntity
  8
0
 62
     7
420
 16777215
370
    15
100
AcDb2dPolyline
 66
     1
 10
0.0
 20
0.0
 30
0.0
  0
VERTEX
  5
6B1
330
6B0
100
AcDbEntity
  8
0
 62
     7
420
 16777215
370
    15
100
AcDbVertex
100
AcDb2dVertex
 10
158.1043773553102
 20
113.4208043286164
 30
0.0
  0
VERTEX
  5
6B2
330
6B0
100
AcDbEntity
  8
0
 62
     7
420
 16777215
370
    15
100
AcDbVertex
100
AcDb2dVertex
 10
162.6043752960612
 20
113.4208043286164
 30
0.0
  0
SEQEND
  5
6B3
330
6B0
100
AcDbEntity
  8
0
 62
     7
420
 16777215
370
    15
  0
ENDBLK
  5
6AF
330
6AC
100
AcDbEntity
  8
0
100
AcDbBlockEnd
  0
BLOCK
  5
6B6
330
6B4
100
AcDbEntity
  8
0
100
AcDbBlockBegin
  2
block 155
 70
     0
 10
0.0
 20
0.0
 30
0.0
  3
block 155
  1

  0
POLYLINE
  5
6B8
330
6B4
100
AcDbEntity
  8
0
 62
     7
420
 16777215
370
    25
100
AcDb2dPolyline
 66
     1
 10
0.0
 20
0.0
 30
0.0
  0
VERTEX
  5
6B9
330
6B8
100
AcDbEntity
  8
0
 62
     7
420
 16777215
370
    25
100
AcDbVertex
100
AcDb2dVertex
 10
158.1043773553102
 20
113.4208043286164
 30
0.0
  0
VERTEX
  5
6BA
330
6B8
100
AcDbEntity
  8
0
 62
     7
420
 16777215
370
    25
100
AcDbVertex
100
AcDb2dVertex
 10
158.1043773553102
 20
110.420817460708
 30
0.0
  0
SEQEND
  5
6BB
330
6B8
100
AcDbEntity
  8
0
 62
     7
420
 16777215
370
    25
  0
ENDBLK
  5
6B7
330
6B4
100
AcDbEntity
  8
0
100
AcDbBlockEnd
  0
BLOCK
  5
6BE
330
6BC
100
AcDbEntity
  8
0
100
AcDbBlockBegin
  2
block 156
 70
     0
 10
0.0
 20
0.0
 30
0.0
  3
block 156
  1

  0
POLYLINE
  5
6C0
330
6BC
100
AcDbEntity
  8
0
 62
     7
420
 16777215
370
    25
100
AcDb2dPolyline
 66
     1
 10
0.0
 20
0.0
 30
0.0
  0
VERTEX
  5
6C1
330
6C0
100
AcDbEntity
  8
0
 62
     7
420
 16777215
370
    25
100
AcDbVertex
100
AcDb2dVertex
 10
162.6043752960612
 20
113.4208043286164
 30
0.0
  0
VERTEX
  5
6C2
330
6C0
100
AcDbEntity
  8
0
 62
     7
420
 16777215
370
    25
100
AcDbVertex
100
AcDb2dVertex
 10
162.6043752960612
 20
110.420817460708
 30
0.0
  0
SEQEND
  5
6C3
330
6C0
100
AcDbEntity
  8
0
 62
     7
420
 16777215
370
    25
  0
ENDBLK
  5
6BF
330
6BC
100
AcDbEntity
  8
0
100
AcDbBlockEnd
  0
BLOCK
  5
6C6
330
6C4
100
AcDbEntity
  8
0
100
AcDbBlockBegin
  2
block 157
 70
     0
 10
0.0
 20
0.0
 30
0.0
  3
block 157
  1

  0
POLYLINE
  5
6C8
330
6C4
100
AcDbEntity
  8
0
 62
     7
420
 16777215
370
    15
100
AcDb2dPolyline
 66
     1
 10
0.0
 20
0.0
 30
0.0
  0
VERTEX
  5
6C9
330
6C8
100
AcDbEntity
  8
0
 62
     7
420
 16777215
370
    15
100
AcDbVertex
100
AcDb2dVertex
 10
170.6042109253017
 20
113.4208043286164
 30
0.0
  0
VERTEX
  5
6CA
330
6C8
100
AcDbEntity
  8
0
 62
     7
420
 16777215
370
    15
100
AcDbVertex
100
AcDb2dVertex
 10
175.1042088660528
 20
113.4208043286164
 30
0.0
  0
SEQEND
  5
6CB
330
6C8
100
AcDbEntity
  8
0
 62
     7
420
 16777215
370
    15
  0
ENDBLK
  5
6C7
330
6C4
100
AcDbEntity
  8
0
100
AcDbBlockEnd
  0
BLOCK
  5
6CE
330
6CC
100
AcDbEntity
  8
0
100
AcDbBlockBegin
  2
block 158
 70
     0
 10
0.0
 20
0.0
 30
0.0
  3
block 158
  1

  0
POLYLINE
  5
6D0
330
6CC
100
AcDbEntity
  8
0
 62
     7
420
 16777215
370
    25
100
AcDb2dPolyline
 66
     1
 10
0.0
 20
0.0
 30
0.0
  0
VERTEX
  5
6D1
330
6D0
100
AcDbEntity
  8
0
 62
     7
420
 16777215
370
    25
100
AcDbVertex
100
AcDb2dVertex
 10
170.6042109253017
 20
113.4208043286164
 30
0.0
  0
VERTEX
  5
6D2
330
6D0
100
AcDbEntity
  8
0
 62
     7
420
 16777215
370
    25
100
AcDbVertex
100
AcDb2dVertex
 10
170.6042109253017
 20
110.420817460708
 30
0.0
  0
SEQEND
  5
6D3
330
6D0
100
AcDbEntity
  8
0
 62
     7
420
 16777215
370
    25
  0
ENDBLK
  5
6CF
330
6CC
100
AcDbEntity
  8
0
100
AcDbBlockEnd
  0
BLOCK
  5
6D6
330
6D4
100
AcDbEntity
  8
0
100
AcDbBlockBegin
  2
block 159
 70
     0
 10
0.0
 20
0.0
 30
0.0
  3
block 159
  1

  0
POLYLINE
  5
6D8
330
6D4
100
AcDbEntity
  8
0
 62
     7
420
 16777215
370
    25
100
AcDb2dPolyline
 66
     1
 10
0.0
 20
0.0
 30
0.0
  0
VERTEX
  5
6D9
330
6D8
100
AcDbEntity
  8
0
 62
     7
420
 16777215
370
    25
100
AcDbVertex
100
AcDb2dVertex
 10
175.1042088660528
 20
113.4208043286164
 30
0.0
  0
VERTEX
  5
6DA
330
6D8
100
AcDbEntity
  8
0
 62
     7
420
 16777215
370
    25
100
AcDbVertex
100
AcDb2dVertex
 10
175.1042088660528
 20
110.420817460708
 30
0.0
  0
SEQEND
  5
6DB
330
6D8
100
AcDbEntity
  8
0
 62
     7
420
 16777215
370
    25
  0
ENDBLK
  5
6D7
330
6D4
100
AcDbEntity
  8
0
100
AcDbBlockEnd
  0
BLOCK
  5
6DE
330
6DC
100
AcDbEntity
  8
0
100
AcDbBlockBegin
  2
block 160
 70
     0
 10
0.0
 20
0.0
 30
0.0
  3
block 160
  1

  0
POLYLINE
  5
6E0
330
6DC
100
AcDbEntity
  8
0
 62
     7
420
 16777215
370
    15
100
AcDb2dPolyline
 66
     1
 10
0.0
 20
0.0
 30
0.0
  0
VERTEX
  5
6E1
330
6E0
100
AcDbEntity
  8
0
 62
     7
420
 16777215
370
    15
100
AcDbVertex
100
AcDb2dVertex
 10
183.1040797730702
 20
113.4208043286164
 30
0.0
  0
VERTEX
  5
6E2
330
6E0
100
AcDbEntity
  8
0
 62
     7
420
 16777215
370
    15
100
AcDbVertex
100
AcDb2dVertex
 10
187.6040471753209
 20
113.4208043286164
 30
0.0
  0
SEQEND
  5
6E3
330
6E0
100
AcDbEntity
  8
0
 62
     7
420
 16777215
370
    15
  0
ENDBLK
  5
6DF
330
6DC
100
AcDbEntity
  8
0
100
AcDbBlockEnd
  0
BLOCK
  5
6E6
330
6E4
100
AcDbEntity
  8
0
100
AcDbBlockBegin
  2
block 161
 70
     0
 10
0.0
 20
0.0
 30
0.0
  3
block 161
  1

  0
POLYLINE
  5
6E8
330
6E4
100
AcDbEntity
  8
0
 62
     7
420
 16777215
370
    25
100
AcDb2dPolyline
 66
     1
 10
0.0
 20
0.0
 30
0.0
  0
VERTEX
  5
6E9
330
6E8
100
AcDbEntity
  8
0
 62
     7
420
 16777215
370
    25
100
AcDbVertex
100
AcDb2dVertex
 10
183.1040797730702
 20
113.4208043286164
 30
0.0
  0
VERTEX
  5
6EA
330
6E8
100
AcDbEntity
  8
0
 62
     7
420
 16777215
370
    25
100
AcDbVertex
100
AcDb2dVertex
 10
183.1040797730702
 20
110.420817460708
 30
0.0
  0
SEQEND
  5
6EB
330
6E8
100
AcDbEntity
  8
0
 62
     7
420
 16777215
370
    25
  0
ENDBLK
  5
6E7
330
6E4
100
AcDbEntity
  8
0
100
AcDbBlockEnd
  0
BLOCK
  5
6EE
330
6EC
100
AcDbEntity
  8
0
100
AcDbBlockBegin
  2
block 162
 70
     0
 10
0.0
 20
0.0
 30
0.0
  3
block 162
  1

  0
POLYLINE
  5
6F0
330
6EC
100
AcDbEntity
  8
0
 62
     7
420
 16777215
370
    25
100
AcDb2dPolyline
 66
     1
 10
0.0
 20
0.0
 30
0.0
  0
VERTEX
  5
6F1
330
6F0
100
AcDbEntity
  8
0
 62
     7
420
 16777215
370
    25
100
AcDbVertex
100
AcDb2dVertex
 10
187.6040471753209
 20
113.4208043286164
 30
0.0
  0
VERTEX
  5
6F2
330
6F0
100
AcDbEntity
  8
0
 62
     7
420
 16777215
370
    25
100
AcDbVertex
100
AcDb2dVertex
 10
187.6040471753209
 20
110.420817460708
 30
0.0
  0
SEQEND
  5
6F3
330
6F0
100
AcDbEntity
  8
0
 62
     7
420
 16777215
370
    25
  0
ENDBLK
  5
6EF
330
6EC
100
AcDbEntity
  8
0
100
AcDbBlockEnd
  0
BLOCK
  5
6F6
330
6F4
100
AcDbEntity
  8
0
100
AcDbBlockBegin
  2
block 163
 70
     0
 10
0.0
 20
0.0
 30
0.0
  3
block 163
  1

  0
POLYLINE
  5
6F8
330
6F4
100
AcDbEntity
  8
0
 62
     7
420
 16777215
370
    15
100
AcDb2dPolyline
 66
     1
 10
0.0
 20
0.0
 30
0.0
  0
VERTEX
  5
6F9
330
6F8
100
AcDbEntity
  8
0
 62
     7
420
 16777215
370
    15
100
AcDbVertex
100
AcDb2dVertex
 10
195.6042661208305
 20
113.4208043286164
 30
0.0
  0
VERTEX
  5
6FA
330
6F8
100
AcDbEntity
  8
0
 62
     7
420
 16777215
370
    15
100
AcDbVertex
100
AcDb2dVertex
 10
200.1042287838047
 20
113.4208043286164
 30
0.0
  0
SEQEND
  5
6FB
330
6F8
100
AcDbEntity
  8
0
 62
     7
420
 16777215
370
    15
  0
ENDBLK
  5
6F7
330
6F4
100
AcDbEntity
  8
0
100
AcDbBlockEnd
  0
BLOCK
  5
6FE
330
6FC
100
AcDbEntity
  8
0
100
AcDbBlockBegin
  2
block 164
 70
     0
 10
0.0
 20
0.0
 30
0.0
  3
block 164
  1

  0
POLYLINE
  5
700
330
6FC
100
AcDbEntity
  8
0
 62
     7
420
 16777215
370
    25
100
AcDb2dPolyline
 66
     1
 10
0.0
 20
0.0
 30
0.0
  0
VERTEX
  5
701
330
700
100
AcDbEntity
  8
0
 62
     7
420
 16777215
370
    25
100
AcDbVertex
100
AcDb2dVertex
 10
195.6042661208305
 20
113.4208043286164
 30
0.0
  0
VERTEX
  5
702
330
700
100
AcDbEntity
  8
0
 62
     7
420
 16777215
370
    25
100
AcDbVertex
100
AcDb2dVertex
 10
195.6042661208305
 20
110.420817460708
 30
0.0
  0
SEQEND
  5
703
330
700
100
AcDbEntity
  8
0
 62
     7
420
 16777215
370
    25
  0
ENDBLK
  5
6FF
330
6FC
100
AcDbEntity
  8
0
100
AcDbBlockEnd
  0
BLOCK
  5
706
330
704
100
AcDbEntity
  8
0
100
AcDbBlockBegin
  2
block 165
 70
     0
 10
0.0
 20
0.0
 30
0.0
  3
block 165
  1

  0
POLYLINE
  5
708
330
704
100
AcDbEntity
  8
0
 62
     7
420
 16777215
370
    25
100
AcDb2dPolyline
 66
     1
 10
0.0
 20
0.0
 30
0.0
  0
VERTEX
  5
709
330
708
100
AcDbEntity
  8
0
 62
     7
420
 16777215
370
    25
100
AcDbVertex
100
AcDb2dVertex
 10
200.1042287838047
 20
113.4208043286164
 30
0.0
  0
VERTEX
  5
70A
330
708
100
AcDbEntity
  8
0
 62
     7
420
 16777215
370
    25
100
AcDbVertex
100
AcDb2dVertex
 10
200.1042287838047
 20
110.420817460708
 30
0.0
  0
SEQEND
  5
70B
330
708
100
AcDbEntity
  8
0
 62
     7
420
 16777215
370
    25
  0
ENDBLK
  5
707
330
704
100
AcDbEntity
  8
0
100
AcDbBlockEnd
  0
BLOCK
  5
70E
330
70C
100
AcDbEntity
  8
0
100
AcDbBlockBegin
  2
block 166
 70
     0
 10
0.0
 20
0.0
 30
0.0
  3
block 166
  1

  0
POLYLINE
  5
710
330
70C
100
AcDbEntity
  8
0
 62
     7
420
 16777215
370
    15
100
AcDb2dPolyline
 66
     1
 10
0.0
 20
0.0
 30
0.0
  0
VERTEX
  5
711
330
710
100
AcDbEntity
  8
0
 62
     7
420
 16777215
370
    15
100
AcDbVertex
100
AcDb2dVertex
 10
208.1040996908221
 20
113.4208043286164
 30
0.0
  0
VERTEX
  5
712
330
710
100
AcDbEntity
  8
0
 62
     7
420
 16777215
370
    15
100
AcDbVertex
100
AcDb2dVertex
 10
212.6040623537963
 20
113.4208043286164
 30
0.0
  0
SEQEND
  5
713
330
710
100
AcDbEntity
  8
0
 62
     7
420
 16777215
370
    15
  0
ENDBLK
  5
70F
330
70C
100
AcDbEntity
  8
0
100
AcDbBlockEnd
  0
BLOCK
  5
716
330
714
100
AcDbEntity
  8
0
100
AcDbBlockBegin
  2
block 167
 70
     0
 10
0.0
 20
0.0
 30
0.0
  3
block 167
  1

  0
POLYLINE
  5
718
330
714
100
AcDbEntity
  8
0
 62
     7
420
 16777215
370
    25
100
AcDb2dPolyline
 66
     1
 10
0.0
 20
0.0
 30
0.0
  0
VERTEX
  5
719
330
718
100
AcDbEntity
  8
0
 62
     7
420
 16777215
370
    25
100
AcDbVertex
100
AcDb2dVertex
 10
208.1040996908221
 20
113.4208043286164
 30
0.0
  0
VERTEX
  5
71A
330
718
100
AcDbEntity
  8
0
 62
     7
420
 16777215
370
    25
100
AcDbVertex
100
AcDb2dVertex
 10
208.1040996908221
 20
110.420817460708
 30
0.0
  0
SEQEND
  5
71B
330
718
100
AcDbEntity
  8
0
 62
     7
420
 16777215
370
    25
  0
ENDBLK
  5
717
330
714
100
AcDbEntity
  8
0
100
AcDbBlockEnd
  0
BLOCK
  5
71E
330
71C
100
AcDbEntity
  8
0
100
AcDbBlockBegin
  2
block 168
 70
     0
 10
0.0
 20
0.0
 30
0.0
  3
block 168
  1

  0
POLYLINE
  5
720
330
71C
100
AcDbEntity
  8
0
 62
     7
420
 16777215
370
    25
100
AcDb2dPolyline
 66
     1
 10
0.0
 20
0.0
 30
0.0
  0
VERTEX
  5
721
330
720
100
AcDbEntity
  8
0
 62
     7
420
 16777215
370
    25
100
AcDbVertex
100
AcDb2dVertex
 10
212.6040623537963
 20
113.4208043286164
 30
0.0
  0
VERTEX
  5
722
330
720
100
AcDbEntity
  8
0
 62
     7
420
 16777215
370
    25
100
AcDbVertex
100
AcDb2dVertex
 10
212.6040623537963
 20
110.420817460708
 30
0.0
  0
SEQEND
  5
723
330
720
100
AcDbEntity
  8
0
 62
     7
420
 16777215
370
    25
  0
ENDBLK
  5
71F
330
71C
100
AcDbEntity
  8
0
100
AcDbBlockEnd
  0
BLOCK
  5
726
330
724
100
AcDbEntity
  8
0
100
AcDbBlockBegin
  2
block 169
 70
     0
 10
0.0
 20
0.0
 30
0.0
  3
block 169
  1

  0
POLYLINE
  5
728
330
724
100
AcDbEntity
  8
0
 62
     7
420
 16777215
370
    15
100
AcDb2dPolyline
 66
     1
 10
0.0
 20
0.0
 30
0.0
  0
VERTEX
  5
729
330
728
100
AcDbEntity
  8
0
 62
     7
420
 16777215
370
    15
100
AcDbVertex
100
AcDb2dVertex
 10
220.6042916115153
 20
113.4208043286164
 30
0.0
  0
VERTEX
  5
72A
330
728
100
AcDbEntity
  8
0
 62
     7
420
 16777215
370
    15
100
AcDbVertex
100
AcDb2dVertex
 10
225.1042487015566
 20
113.4208043286164
 30
0.0
  0
SEQEND
  5
72B
330
728
100
AcDbEntity
  8
0
 62
     7
420
 16777215
370
    15
  0
ENDBLK
  5
727
330
724
100
AcDbEntity
  8
0
100
AcDbBlockEnd
  0
BLOCK
  5
72E
330
72C
100
AcDbEntity
  8
0
100
AcDbBlockBegin
  2
block 170
 70
     0
 10
0.0
 20
0.0
 30
0.0
  3
block 170
  1

  0
POLYLINE
  5
730
330
72C
100
AcDbEntity
  8
0
 62
     7
420
 16777215
370
    25
100
AcDb2dPolyline
 66
     1
 10
0.0
 20
0.0
 30
0.0
  0
VERTEX
  5
731
330
730
100
AcDbEntity
  8
0
 62
     7
420
 16777215
370
    25
100
AcDbVertex
100
AcDb2dVertex
 10
220.6042916115153
 20
113.4208043286164
 30
0.0
  0
VERTEX
  5
732
330
730
100
AcDbEntity
  8
0
 62
     7
420
 16777215
370
    25
100
AcDbVertex
100
AcDb2dVertex
 10
220.6042916115153
 20
110.420817460708
 30
0.0
  0
SEQEND
  5
733
330
730
100
AcDbEntity
  8
0
 62
     7
420
 16777215
370
    25
  0
ENDBLK
  5
72F
330
72C
100
AcDbEntity
  8
0
100
AcDbBlockEnd
  0
BLOCK
  5
736
330
734
100
AcDbEntity
  8
0
100
AcDbBlockBegin
  2
block 171
 70
     0
 10
0.0
 20
0.0
 30
0.0
  3
block 171
  1

  0
POLYLINE
  5
738
330
734
100
AcDbEntity
  8
0
 62
     7
420
 16777215
370
    25
100
AcDb2dPolyline
 66
     1
 10
0.0
 20
0.0
 30
0.0
  0
VERTEX
  5
739
330
738
100
AcDbEntity
  8
0
 62
     7
420
 16777215
370
    25
100
AcDbVertex
100
AcDb2dVertex
 10
225.1042487015566
 20
113.4208043286164
 30
0.0
  0
VERTEX
  5
73A
330
738
100
AcDbEntity
  8
0
 62
     7
420
 16777215
370
    25
100
AcDbVertex
100
AcDb2dVertex
 10
225.1042487015566
 20
110.420817460708
 30
0.0
  0
SEQEND
  5
73B
330
738
100
AcDbEntity
  8
0
 62
     7
420
 16777215
370
    25
  0
ENDBLK
  5
737
330
734
100
AcDbEntity
  8
0
100
AcDbBlockEnd
  0
BLOCK
  5
73E
330
73C
100
AcDbEntity
  8
0
100
AcDbBlockBegin
  2
block 172
 70
     0
 10
0.0
 20
0.0
 30
0.0
  3
block 172
  1

  0
POLYLINE
  5
740
330
73C
100
AcDbEntity
  8
0
 62
     7
420
 16777215
370
    15
100
AcDb2dPolyline
 66
     1
 10
0.0
 20
0.0
 30
0.0
  0
VERTEX
  5
741
330
740
100
AcDbEntity
  8
0
 62
     7
420
 16777215
370
    15
100
AcDbVertex
100
AcDb2dVertex
 10
233.104119608574
 20
113.4208043286164
 30
0.0
  0
VERTEX
  5
742
330
740
100
AcDbEntity
  8
0
 62
     7
420
 16777215
370
    15
100
AcDbVertex
100
AcDb2dVertex
 10
237.6040822715482
 20
113.4208043286164
 30
0.0
  0
SEQEND
  5
743
330
740
100
AcDbEntity
  8
0
 62
     7
420
 16777215
370
    15
  0
ENDBLK
  5
73F
330
73C
100
AcDbEntity
  8
0
100
AcDbBlockEnd
  0
BLOCK
  5
746
330
744
100
AcDbEntity
  8
0
100
AcDbBlockBegin
  2
block 173
 70
     0
 10
0.0
 20
0.0
 30
0.0
  3
block 173
  1

  0
POLYLINE
  5
748
330
744
100
AcDbEntity
  8
0
 62
     7
420
 16777215
370
    25
100
AcDb2dPolyline
 66
     1
 10
0.0
 20
0.0
 30
0.0
  0
VERTEX
  5
749
330
748
100
AcDbEntity
  8
0
 62
     7
420
 16777215
370
    25
100
AcDbVertex
100
AcDb2dVertex
 10
233.104119608574
 20
113.4208043286164
 30
0.0
  0
VERTEX
  5
74A
330
748
100
AcDbEntity
  8
0
 62
     7
420
 16777215
370
    25
100
AcDbVertex
100
AcDb2dVertex
 10
233.104119608574
 20
110.420817460708
 30
0.0
  0
SEQEND
  5
74B
330
748
100
AcDbEntity
  8
0
 62
     7
420
 16777215
370
    25
  0
ENDBLK
  5
747
330
744
100
AcDbEntity
  8
0
100
AcDbBlockEnd
  0
BLOCK
  5
74E
330
74C
100
AcDbEntity
  8
0
100
AcDbBlockBegin
  2
block 174
 70
     0
 10
0.0
 20
0.0
 30
0.0
  3
block 174
  1

  0
POLYLINE
  5
750
330
74C
100
AcDbEntity
  8
0
 62
     7
420
 16777215
370
    25
100
AcDb2dPolyline
 66
     1
 10
0.0
 20
0.0
 30
0.0
  0
VERTEX
  5
751
330
750
100
AcDbEntity
  8
0
 62
     7
420
 16777215
370
    25
100
AcDbVertex
100
AcDb2dVertex
 10
237.6040822715482
 20
113.4208043286164
 30
0.0
  0
VERTEX
  5
752
330
750
100
AcDbEntity
  8
0
 62
     7
420
 16777215
370
    25
100
AcDbVertex
100
AcDb2dVertex
 10
237.6040822715482
 20
110.420817460708
 30
0.0
  0
SEQEND
  5
753
330
750
100
AcDbEntity
  8
0
 62
     7
420
 16777215
370
    25
  0
ENDBLK
  5
74F
330
74C
100
AcDbEntity
  8
0
100
AcDbBlockEnd
  0
ENDSEC
  0
SECTION
  2
ENTITIES
  0
INSERT
  5
42
330
1F
100
AcDbEntity
  8
BEM
100
AcDbBlockReference
  2
block 2
 10
0.0
 20
0.0
 30
0.0
  0
INSERT
  5
4A
330
1F
100
AcDbEntity
  8
BEM
100
AcDbBlockReference
  2
block 3
 10
0.0
 20
0.0
 30
0.0
  0
INSERT
  5
52
330
1F
100
AcDbEntity
  8
BEM
100
AcDbBlockReference
  2
block 4
 10
0.0
 20
0.0
 30
0.0
  0
INSERT
  5
5A
330
1F
100
AcDbEntity
  8
BEM
100
AcDbBlockReference
  2
block 5
 10
0.0
 20
0.0
 30
0.0
  0
INSERT
  5
62
330
1F
100
AcDbEntity
  8
BEM
100
AcDbBlockReference
  2
block 6
 10
0.0
 20
0.0
 30
0.0
  0
INSERT
  5
6A
330
1F
100
AcDbEntity
  8
BEM
100
AcDbBlockReference
  2
block 7
 10
0.0
 20
0.0
 30
0.0
  0
INSERT
  5
72
330
1F
100
AcDbEntity
  8
BEM
100
AcDbBlockReference
  2
block 8
 10
0.0
 20
0.0
 30
0.0
  0
INSERT
  5
7D
330
1F
100
AcDbEntity
  8
BEM
100
AcDbBlockReference
  2
block 9
 10
0.0
 20
0.0
 30
0.0
  0
INSERT
  5
88
330
1F
100
AcDbEntity
  8
BEM
100
AcDbBlockReference
  2
block 10
 10
0.0
 20
0.0
 30
0.0
  0
INSERT
  5
90
330
1F
100
AcDbEntity
  8
BEM
100
AcDbBlockReference
  2
block 11
 10
0.0
 20
0.0
 30
0.0
  0
INSERT
  5
98
330
1F
100
AcDbEntity
  8
BEM
100
AcDbBlockReference
  2
block 12
 10
0.0
 20
0.0
 30
0.0
  0
INSERT
  5
A0
330
1F
100
AcDbEntity
  8
BEM
100
AcDbBlockReference
  2
block 13
 10
0.0
 20
0.0
 30
0.0
  0
INSERT
  5
A8
330
1F
100
AcDbEntity
  8
BEM
100
AcDbBlockReference
  2
block 14
 10
0.0
 20
0.0
 30
0.0
  0
INSERT
  5
B0
330
1F
100
AcDbEntity
  8
BEM
100
AcDbBlockReference
  2
block 15
 10
0.0
 20
0.0
 30
0.0
  0
INSERT
  5
B8
330
1F
100
AcDbEntity
  8
BEM
100
AcDbBlockReference
  2
block 16
 10
0.0
 20
0.0
 30
0.0
  0
INSERT
  5
C3
330
1F
100
AcDbEntity
  8
BEM
100
AcDbBlockReference
  2
block 17
 10
0.0
 20
0.0
 30
0.0
  0
INSERT
  5
CE
330
1F
100
AcDbEntity
  8
BEM
100
AcDbBlockReference
  2
block 18
 10
0.0
 20
0.0
 30
0.0
  0
INSERT
  5
D6
330
1F
100
AcDbEntity
  8
BEM
100
AcDbBlockReference
  2
block 19
 10
0.0
 20
0.0
 30
0.0
  0
INSERT
  5
DE
330
1F
100
AcDbEntity
  8
BEM
100
AcDbBlockReference
  2
block 20
 10
0.0
 20
0.0
 30
0.0
  0
INSERT
  5
E6
330
1F
100
AcDbEntity
  8
BEM
100
AcDbBlockReference
  2
block 21
 10
0.0
 20
0.0
 30
0.0
  0
INSERT
  5
EE
330
1F
100
AcDbEntity
  8
BEM
100
AcDbBlockReference
  2
block 22
 10
0.0
 20
0.0
 30
0.0
  0
INSERT
  5
F6
330
1F
100
AcDbEntity
  8
BEM
100
AcDbBlockReference
  2
block 23
 10
0.0
 20
0.0
 30
0.0
  0
INSERT
  5
FE
330
1F
100
AcDbEntity
  8
BEM
100
AcDbBlockReference
  2
block 24
 10
0.0
 20
0.0
 30
0.0
  0
INSERT
  5
109
330
1F
100
AcDbEntity
  8
BEM
100
AcDbBlockReference
  2
block 25
 10
0.0
 20
0.0
 30
0.0
  0
INSERT
  5
114
330
1F
100
AcDbEntity
  8
BEM
100
AcDbBlockReference
  2
block 26
 10
0.0
 20
0.0
 30
0.0
  0
INSERT
  5
11C
330
1F
100
AcDbEntity
  8
BEM
100
AcDbBlockReference
  2
block 27
 10
0.0
 20
0.0
 30
0.0
  0
INSERT
  5
124
330
1F
100
AcDbEntity
  8
BEM
100
AcDbBlockReference
  2
block 28
 10
0.0
 20
0.0
 30
0.0
  0
INSERT
  5
12C
330
1F
100
AcDbEntity
  8
BEM
100
AcDbBlockReference
  2
block 29
 10
0.0
 20
0.0
 30
0.0
  0
INSERT
  5
134
330
1F
100
AcDbEntity
  8
BEM
100
AcDbBlockReference
  2
block 30
 10
0.0
 20
0.0
 30
0.0
  0
INSERT
  5
13C
330
1F
100
AcDbEntity
  8
BEM
100
AcDbBlockReference
  2
block 31
 10
0.0
 20
0.0
 30
0.0
  0
INSERT
  5
144
330
1F
100
AcDbEntity
  8
BEM
100
AcDbBlockReference
  2
block 32
 10
0.0
 20
0.0
 30
0.0
  0
INSERT
  5
14F
330
1F
100
AcDbEntity
  8
BEM
100
AcDbBlockReference
  2
block 33
 10
0.0
 20
0.0
 30
0.0
  0
INSERT
  5
15A
330
1F
100
AcDbEntity
  8
BEM
100
AcDbBlockReference
  2
block 34
 10
0.0
 20
0.0
 30
0.0
  0
INSERT
  5
162
330
1F
100
AcDbEntity
  8
BEM
100
AcDbBlockReference
  2
block 35
 10
0.0
 20
0.0
 30
0.0
  0
INSERT
  5
16A
330
1F
100
AcDbEntity
  8
BEM
100
AcDbBlockReference
  2
block 36
 10
0.0
 20
0.0
 30
0.0
  0
INSERT
  5
172
330
1F
100
AcDbEntity
  8
BEM
100
AcDbBlockReference
  2
block 37
 10
0.0
 20
0.0
 30
0.0
  0
INSERT
  5
17A
330
1F
100
AcDbEntity
  8
BEM
100
AcDbBlockReference
  2
block 38
 10
0.0
 20
0.0
 30
0.0
  0
INSERT
  5
182
330
1F
100
AcDbEntity
  8
BEM
100
AcDbBlockReference
  2
block 39
 10
0.0
 20
0.0
 30
0.0
  0
INSERT
  5
18A
330
1F
100
AcDbEntity
  8
BEM
100
AcDbBlockReference
  2
block 40
 10
0.0
 20
0.0
 30
0.0
  0
INSERT
  5
195
330
1F
100
AcDbEntity
  8
BEM
100
AcDbBlockReference
  2
block 41
 10
0.0
 20
0.0
 30
0.0
  0
INSERT
  5
1A0
330
1F
100
AcDbEntity
  8
BEM
100
AcDbBlockReference
  2
block 42
 10
0.0
 20
0.0
 30
0.0
  0
INSERT
  5
1A8
330
1F
100
AcDbEntity
  8
BEM
100
AcDbBlockReference
  2
block 43
 10
0.0
 20
0.0
 30
0.0
  0
INSERT
  5
1B0
330
1F
100
AcDbEntity
  8
BEM
100
AcDbBlockReference
  2
block 44
 10
0.0
 20
0.0
 30
0.0
  0
INSERT
  5
1B8
330
1F
100
AcDbEntity
  8
BEM
100
AcDbBlockReference
  2
block 45
 10
0.0
 20
0.0
 30
0.0
  0
INSERT
  5
1C0
330
1F
100
AcDbEntity
  8
BEM
100
AcDbBlockReference
  2
block 46
 10
0.0
 20
0.0
 30
0.0
  0
INSERT
  5
1C8
330
1F
100
AcDbEntity
  8
BEM
100
AcDbBlockReference
  2
block 47
 10
0.0
 20
0.0
 30
0.0
  0
INSERT
  5
1D0
330
1F
100
AcDbEntity
  8
BEM
100
AcDbBlockReference
  2
block 48
 10
0.0
 20
0.0
 30
0.0
  0
INSERT
  5
1D8
330
1F
100
AcDbEntity
  8
BEM
100
AcDbBlockReference
  2
block 49
 10
0.0
 20
0.0
 30
0.0
  0
INSERT
  5
1E3
330
1F
100
AcDbEntity
  8
BEM
100
AcDbBlockReference
  2
block 50
 10
0.0
 20
0.0
 30
0.0
  0
INSERT
  5
1EE
330
1F
100
AcDbEntity
  8
BEM
100
AcDbBlockReference
  2
block 51
 10
0.0
 20
0.0
 30
0.0
  0
INSERT
  5
1F6
330
1F
100
AcDbEntity
  8
BEM
100
AcDbBlockReference
  2
block 52
 10
0.0
 20
0.0
 30
0.0
  0
INSERT
  5
1FE
330
1F
100
AcDbEntity
  8
BEM
100
AcDbBlockReference
  2
block 53
 10
0.0
 20
0.0
 30
0.0
  0
INSERT
  5
206
330
1F
100
AcDbEntity
  8
BEM
100
AcDbBlockReference
  2
block 54
 10
0.0
 20
0.0
 30
0.0
  0
INSERT
  5
20E
330
1F
100
AcDbEntity
  8
BEM
100
AcDbBlockReference
  2
block 55
 10
0.0
 20
0.0
 30
0.0
  0
INSERT
  5
219
330
1F
100
AcDbEntity
  8
BEM
100
AcDbBlockReference
  2
block 56
 10
0.0
 20
0.0
 30
0.0
  0
INSERT
  5
221
330
1F
100
AcDbEntity
  8
BEM
100
AcDbBlockReference
  2
block 57
 10
0.0
 20
0.0
 30
0.0
  0
INSERT
  5
229
330
1F
100
AcDbEntity
  8
BEM
100
AcDbBlockReference
  2
block 58
 10
0.0
 20
0.0
 30
0.0
  0
INSERT
  5
231
330
1F
100
AcDbEntity
  8
BEM
100
AcDbBlockReference
  2
block 59
 10
0.0
 20
0.0
 30
0.0
  0
POLYLINE
  5
238
330
1F
100
AcDbEntity
  8
BEM
 62
   153
420
  4105180
370
    25
100
AcDb2dPolyline
 66
     1
 10
0.0
 20
0.0
 30
0.0
  0
VERTEX
  5
239
330
238
100
AcDbEntity
  8
BEM
 62
   153
420
  4105180
370
    25
100
AcDbVertex
100
AcDb2dVertex
 10
110.3867038504672
 20
103.0706926482253
 30
0.0
  0
VERTEX
  5
23A
330
238
100
AcDbEntity
  8
BEM
 62
   153
420
  4105180
370
    25
100
AcDbVertex
100
AcDb2dVertex
 10
-20.85989110589614
 20
103.0706926482253
 30
0.0
  0
SEQEND
  5
23B
330
238
100
AcDbEntity
  8
BEM
 62
   153
420
  4105180
370
    25
  0
POLYLINE
  5
23C
330
1F
100
AcDbEntity
  8
BEM
 62
   153
420
  4105180
370
    25
100
AcDb2dPolyline
 66
     1
 10
0.0
 20
0.0
 30
0.0
  0
VERTEX
  5
23D
330
23C
100
AcDbEntity
  8
BEM
 62
   153
420
  4105180
370
    25
100
AcDbVertex
100
AcDb2dVertex
 10
-8.208292220170195
 20
108.8205822237557
 30
0.0
  0
VERTEX
  5
23E
330
23C
100
AcDbEntity
  8
BEM
 62
   153
420
  4105180
370
    25
100
AcDbVertex
100
AcDb2dVertex
 10
-20.85989110589614
 20
108.8205822237557
 30
0.0
  0
SEQEND
  5
23F
330
23C
100
AcDbEntity
  8
BEM
 62
   153
420
  4105180
370
    25
  0
POLYLINE
  5
240
330
1F
100
AcDbEntity
  8
BEM
 62
   153
420
  4105180
370
    25
100
AcDb2dPolyline
 66
     1
 10
0.0
 20
0.0
 30
0.0
  0
VERTEX
  5
241
330
240
100
AcDbEntity
  8
BEM
 62
   153
420
  4105180
370
    25
100
AcDbVertex
100
AcDb2dVertex
 10
-20.85989110589614
 20
99.76858689913574
 30
0.0
  0
VERTEX
  5
242
330
240
100
AcDbEntity
  8
BEM
 62
   153
420
  4105180
370
    25
100
AcDbVertex
100
AcDb2dVertex
 10
-20.85989110589614
 20
96.46679865003804
 30
0.0
  0
SEQEND
  5
243
330
240
100
AcDbEntity
  8
BEM
 62
   153
420
  4105180
370
    25
  0
POLYLINE
  5
244
330
1F
100
AcDbEntity
  8
BEM
 62
   153
420
  4105180
370
    25
100
AcDb2dPolyline
 66
     1
 10
0.0
 20
0.0
 30
0.0
  0
VERTEX
  5
245
330
244
100
AcDbEntity
  8
BEM
 62
   153
420
  4105180
370
    25
100
AcDbVertex
100
AcDb2dVertex
 10
-20.85989110589614
 20
112.1226879728453
 30
0.0
  0
VERTEX
  5
246
330
244
100
AcDbEntity
  8
BEM
 62
   153
420
  4105180
370
    25
100
AcDbVertex
100
AcDb2dVertex
 10
-20.85989110589614
 20
125.0497354208266
 30
0.0
  0
SEQEND
  5
247
330
244
100
AcDbEntity
  8
BEM
 62
   153
420
  4105180
370
    25
  0
POLYLINE
  5
248
330
1F
100
AcDbEntity
  8
BEM
370
     0
100
AcDb2dPolyline
 66
     1
 10
0.0
 20
0.0
 30
0.0
  0
VERTEX
  5
249
330
248
100
AcDbEntity
  8
BEM
370
     0
100
AcDbVertex
100
AcDb2dVertex
 10
-21.41022443909203
 20
99.76858689913574
 30
0.0
  0
VERTEX
  5
24A
330
248
100
AcDbEntity
  8
BEM
370
     0
100
AcDbVertex
100
AcDb2dVertex
 10
-20.30952249492273
 20
99.76858689913574
 30
0.0
  0
VERTEX
  5
24B
330
248
100
AcDbEntity
  8
BEM
370
     0
100
AcDbVertex
100
AcDb2dVertex
 10
-20.85989110589614
 20
103.0706926482253
 30
0.0
  0
VERTEX
  5
24C
330
248
100
AcDbEntity
  8
BEM
370
     0
100
AcDbVertex
100
AcDb2dVertex
 10
-21.41022443909203
 20
99.76858689913574
 30
0.0
  0
SEQEND
  5
24E
330
248
100
AcDbEntity
  8
BEM
370
     0
  0
HATCH
  5
24D
330
1F
100
AcDbEntity
  8
BEM
 62
   153
420
  4105180
100
AcDbHatch
 10
0.0
 20
0.0
 30
0.0
210
0.0
220
0.0
230
1.0
  2
SOLID
 70
     1
 71
     0
 91
        1
 92
        1
 93
        3
 72
     1
 10
-21.41022443909203
 20
99.76858689913574
 11
-20.30952249492273
 21
99.76858689913574
 72
     1
 10
-20.30952249492273
 20
99.76858689913574
 11
-20.85989110589614
 21
103.0706926482253
 72
     1
 10
-20.85989110589614
 20
103.0706926482253
 11
-21.41022443909203
 21
99.76858689913574
 97
        0
 75
     2
 76
     1
 98
        0
  0
POLYLINE
  5
24F
330
1F
100
AcDbEntity
  8
BEM
370
     0
100
AcDb2dPolyline
 66
     1
 10
0.0
 20
0.0
 30
0.0
  0
VERTEX
  5
250
330
24F
100
AcDbEntity
  8
BEM
370
     0
100
AcDbVertex
100
AcDb2dVertex
 10
-21.41022443909203
 20
112.1226879728453
 30
0.0
  0
VERTEX
  5
251
330
24F
100
AcDbEntity
  8
BEM
370
     0
100
AcDbVertex
100
AcDb2dVertex
 10
-20.30952249492273
 20
112.1226879728453
 30
0.0
  0
VERTEX
  5
252
330
24F
100
AcDbEntity
  8
BEM
370
     0
100
AcDbVertex
100
AcDb2dVertex
 10
-20.85989110589614
 20
108.8205822237557
 30
0.0
  0
VERTEX
  5
253
330
24F
100
AcDbEntity
  8
BEM
370
     0
100
AcDbVertex
100
AcDb2dVertex
 10
-21.41022443909203
 20
112.1226879728453
 30
0.0
  0
SEQEND
  5
255
330
24F
100
AcDbEntity
  8
BEM
370
     0
  0
HATCH
  5
254
330
1F
100
AcDbEntity
  8
BEM
 62
   153
420
  4105180
100
AcDbHatch
 10
0.0
 20
0.0
 30
0.0
210
0.0
220
0.0
230
1.0
  2
SOLID
 70
     1
 71
     0
 91
        1
 92
        1
 93
        3
 72
     1
 10
-21.41022443909203
 20
112.1226879728453
 11
-20.30952249492273
 21
112.1226879728453
 72
     1
 10
-20.30952249492273
 20
112.1226879728453
 11
-20.85989110589614
 21
108.8205822237557
 72
     1
 10
-20.85989110589614
 20
108.8205822237557
 11
-21.41022443909203
 21
112.1226879728453
 97
        0
 75
     2
 76
     1
 98
        0
  0
INSERT
  5
257
330
1F
100
AcDbEntity
  8
BEM
100
AcDbBlockReference
  2
block 60
 10
0.0
 20
0.0
 30
0.0
  0
INSERT
  5
25F
330
1F
100
AcDbEntity
  8
BEM
100
AcDbBlockReference
  2
block 61
 10
0.0
 20
0.0
 30
0.0
  0
POLYLINE
  5
266
330
1F
100
AcDbEntity
  8
BEM
370
     0
100
AcDb2dPolyline
 66
     1
 10
0.0
 20
0.0
 30
0.0
  0
VERTEX
  5
267
330
266
100
AcDbEntity
  8
BEM
370
     0
100
AcDbVertex
100
AcDb2dVertex
 10
-20.85989110589614
 20
108.8205822237557
 30
0.0
  0
VERTEX
  5
268
330
266
100
AcDbEntity
  8
BEM
370
     0
100
AcDbVertex
100
AcDb2dVertex
 10
-20.85989110589614
 20
108.8205822237557
 30
0.0
  0
SEQEND
  5
269
330
266
100
AcDbEntity
  8
BEM
370
     0
  0
MTEXT
  5
26A
330
1F
100
AcDbEntity
  8
BEM
 62
   153
420
  4105180
100
AcDbMText
 10
-0.5351955836335622
 20
219.3742064881252
 30
0.0
 40
3.246966665854925
 41
0.0
 46
0.0
 71
     7
 72
     1
  1
\fFagoOT|b0|i0|c0|p34;\W1;24,75
 73
     1
 44
1.0
  0
MTEXT
  5
26B
330
1F
100
AcDbEntity
  8
BEM
 62
   153
420
  4105180
100
AcDbMText
 10
40.96804198194549
 20
182.0562431728019
 30
0.0
 40
3.246966665854925
 41
0.0
 46
0.0
 71
     7
 72
     1
  1
\fFagoOT|b0|i0|c0|p34;\W1;12,50
 73
     1
 44
1.0
  0
MTEXT
  5
26C
330
1F
100
AcDbEntity
  8
BEM
 62
   153
420
  4105180
100
AcDbMText
 10
98.29098576101754
 20
227.6551825060203
 30
0.0
 40
3.246966665854925
 41
0.0
 46
0.0
 71
     7
 72
     1
  1
\fFagoOT|b0|i0|c0|p34;\W1;224,75
 73
     1
 44
1.0
  0
MTEXT
  5
26D
330
1F
100
AcDbEntity
  8
BEM
 62
   153
420
  4105180
100
AcDbMText
 10
110.1164482689119
 20
236.4246730637237
 30
0.0
 40
3.246966665854925
 41
0.0
 46
0.0
 71
     7
 72
     1
  1
\fFagoOT|b0|i0|c0|p34;\W1;249,50
 73
     1
 44
1.0
  0
MTEXT
  5
26E
330
1F
100
AcDbEntity
  8
BEM
 62
   153
420
  4105180
100
AcDbMText
 10
-24.23504095531277
 20
194.709045361479
 30
0.0
 40
3.246966665854925
 41
0.0
 46
0.0
 71
     7
 72
     1
  1
\fFagoOT|b0|i0|c0|p34;\W1;15
 11
6.123233995736766E-17
 21
1.0
 31
0.0
 73
     1
 44
1.0
  0
MTEXT
  5
26F
330
1F
100
AcDbEntity
  8
BEM
 62
   153
420
  4105180
100
AcDbMText
 10
222.156848296905
 20
210.957828923024
 30
0.0
 40
3.246979527787845
 41
0.0
 46
0.0
 71
     7
 72
     1
  1
\fFagoOT|b0|i0|c0|p34;\W1;ø 4
 11
0.4999980194003674
 21
0.8660265472811499
 31
0.0
 73
     1
 44
1.0
  0
MTEXT
  5
270
330
1F
100
AcDbEntity
  8
BEM
 62
   153
420
  4105180
100
AcDbMText
 10
-22.73986951471434
 20
113.5835923652673
 30
0.0
 40
3.246966665854925
 41
0.0
 46
0.0
 71
     7
 72
     1
  1
\fFagoOT|b0|i0|c0|p34;\W1;5,75
 11
6.123233995736766E-17
 21
1.0
 31
0.0
 73
     1
 44
1.0
  0
MTEXT
  5
271
330
1F
100
AcDbEntity
  8
BEM
 62
   153
420
  4105180
100
AcDbMText
 10
-13.82327337979071
 20
115.2145005679846
 30
0.0
 40
3.246966665854925
 41
0.0
 46
0.0
 71
     7
 72
     1
  1
\fFagoOT|b0|i0|c0|p34;\W1;1,6
 11
6.123233995736766E-17
 21
1.0
 31
0.0
 73
     1
 44
1.0
  0
INSERT
  5
273
330
1F
100
AcDbEntity
  8
0
100
AcDbBlockReference
  2
block 62
 10
0.0
 20
0.0
 30
0.0
  0
INSERT
  5
27B
330
1F
100
AcDbEntity
  8
0
100
AcDbBlockReference
  2
block 63
 10
0.0
 20
0.0
 30
0.0
  0
INSERT
  5
283
330
1F
100
AcDbEntity
  8
0
100
AcDbBlockReference
  2
block 64
 10
0.0
 20
0.0
 30
0.0
  0
INSERT
  5
28B
330
1F
100
AcDbEntity
  8
0
100
AcDbBlockReference
  2
block 65
 10
0.0
 20
0.0
 30
0.0
  0
INSERT
  5
293
330
1F
100
AcDbEntity
  8
0
100
AcDbBlockReference
  2
block 66
 10
0.0
 20
0.0
 30
0.0
  0
INSERT
  5
298
330
1F
100
AcDbEntity
  8
0
100
AcDbBlockReference
  2
block 67
 10
0.0
 20
0.0
 30
0.0
  0
INSERT
  5
2A0
330
1F
100
AcDbEntity
  8
0
100
AcDbBlockReference
  2
block 68
 10
0.0
 20
0.0
 30
0.0
  0
INSERT
  5
2A8
330
1F
100
AcDbEntity
  8
0
100
AcDbBlockReference
  2
block 69
 10
0.0
 20
0.0
 30
0.0
  0
INSERT
  5
2B0
330
1F
100
AcDbEntity
  8
0
100
AcDbBlockReference
  2
block 70
 10
0.0
 20
0.0
 30
0.0
  0
INSERT
  5
2B8
330
1F
100
AcDbEntity
  8
0
100
AcDbBlockReference
  2
block 71
 10
0.0
 20
0.0
 30
0.0
  0
INSERT
  5
2C0
330
1F
100
AcDbEntity
  8
0
100
AcDbBlockReference
  2
block 72
 10
0.0
 20
0.0
 30
0.0
  0
INSERT
  5
2C5
330
1F
100
AcDbEntity
  8
0
100
AcDbBlockReference
  2
block 73
 10
0.0
 20
0.0
 30
0.0
  0
INSERT
  5
2CD
330
1F
100
AcDbEntity
  8
0
100
AcDbBlockReference
  2
block 74
 10
0.0
 20
0.0
 30
0.0
  0
INSERT
  5
2D5
330
1F
100
AcDbEntity
  8
0
100
AcDbBlockReference
  2
block 75
 10
0.0
 20
0.0
 30
0.0
  0
INSERT
  5
2DD
330
1F
100
AcDbEntity
  8
0
100
AcDbBlockReference
  2
block 76
 10
0.0
 20
0.0
 30
0.0
  0
INSERT
  5
2E2
330
1F
100
AcDbEntity
  8
0
100
AcDbBlockReference
  2
block 77
 10
0.0
 20
0.0
 30
0.0
  0
INSERT
  5
2EA
330
1F
100
AcDbEntity
  8
0
100
AcDbBlockReference
  2
block 78
 10
0.0
 20
0.0
 30
0.0
  0
INSERT
  5
2F2
330
1F
100
AcDbEntity
  8
0
100
AcDbBlockReference
  2
block 79
 10
0.0
 20
0.0
 30
0.0
  0
INSERT
  5
2FA
330
1F
100
AcDbEntity
  8
0
100
AcDbBlockReference
  2
block 80
 10
0.0
 20
0.0
 30
0.0
  0
INSERT
  5
302
330
1F
100
AcDbEntity
  8
0
100
AcDbBlockReference
  2
block 81
 10
0.0
 20
0.0
 30
0.0
  0
INSERT
  5
30A
330
1F
100
AcDbEntity
  8
0
100
AcDbBlockReference
  2
block 82
 10
0.0
 20
0.0
 30
0.0
  0
INSERT
  5
30F
330
1F
100
AcDbEntity
  8
0
100
AcDbBlockReference
  2
block 83
 10
0.0
 20
0.0
 30
0.0
  0
INSERT
  5
317
330
1F
100
AcDbEntity
  8
0
100
AcDbBlockReference
  2
block 84
 10
0.0
 20
0.0
 30
0.0
  0
INSERT
  5
31F
330
1F
100
AcDbEntity
  8
0
100
AcDbBlockReference
  2
block 85
 10
0.0
 20
0.0
 30
0.0
  0
INSERT
  5
327
330
1F
100
AcDbEntity
  8
0
100
AcDbBlockReference
  2
block 86
 10
0.0
 20
0.0
 30
0.0
  0
INSERT
  5
32F
330
1F
100
AcDbEntity
  8
0
100
AcDbBlockReference
  2
block 87
 10
0.0
 20
0.0
 30
0.0
  0
INSERT
  5
337
330
1F
100
AcDbEntity
  8
0
100
AcDbBlockReference
  2
block 88
 10
0.0
 20
0.0
 30
0.0
  0
INSERT
  5
33F
330
1F
100
AcDbEntity
  8
0
100
AcDbBlockReference
  2
block 89
 10
0.0
 20
0.0
 30
0.0
  0
INSERT
  5
347
330
1F
100
AcDbEntity
  8
0
100
AcDbBlockReference
  2
block 90
 10
0.0
 20
0.0
 30
0.0
  0
INSERT
  5
34F
330
1F
100
AcDbEntity
  8
0
100
AcDbBlockReference
  2
block 91
 10
0.0
 20
0.0
 30
0.0
  0
INSERT
  5
357
330
1F
100
AcDbEntity
  8
0
100
AcDbBlockReference
  2
block 92
 10
0.0
 20
0.0
 30
0.0
  0
INSERT
  5
35C
330
1F
100
AcDbEntity
  8
0
100
AcDbBlockReference
  2
block 93
 10
0.0
 20
0.0
 30
0.0
  0
INSERT
  5
364
330
1F
100
AcDbEntity
  8
0
100
AcDbBlockReference
  2
block 94
 10
0.0
 20
0.0
 30
0.0
  0
INSERT
  5
36C
330
1F
100
AcDbEntity
  8
0
100
AcDbBlockReference
  2
block 95
 10
0.0
 20
0.0
 30
0.0
  0
INSERT
  5
371
330
1F
100
AcDbEntity
  8
0
100
AcDbBlockReference
  2
block 96
 10
0.0
 20
0.0
 30
0.0
  0
INSERT
  5
379
330
1F
100
AcDbEntity
  8
0
100
AcDbBlockReference
  2
block 97
 10
0.0
 20
0.0
 30
0.0
  0
INSERT
  5
381
330
1F
100
AcDbEntity
  8
0
100
AcDbBlockReference
  2
block 98
 10
0.0
 20
0.0
 30
0.0
  0
INSERT
  5
389
330
1F
100
AcDbEntity
  8
0
100
AcDbBlockReference
  2
block 99
 10
0.0
 20
0.0
 30
0.0
  0
INSERT
  5
391
330
1F
100
AcDbEntity
  8
0
100
AcDbBlockReference
  2
block 100
 10
0.0
 20
0.0
 30
0.0
  0
INSERT
  5
399
330
1F
100
AcDbEntity
  8
0
100
AcDbBlockReference
  2
block 101
 10
0.0
 20
0.0
 30
0.0
  0
INSERT
  5
3A1
330
1F
100
AcDbEntity
  8
0
100
AcDbBlockReference
  2
block 102
 10
0.0
 20
0.0
 30
0.0
  0
INSERT
  5
3A9
330
1F
100
AcDbEntity
  8
0
100
AcDbBlockReference
  2
block 103
 10
0.0
 20
0.0
 30
0.0
  0
INSERT
  5
3B1
330
1F
100
AcDbEntity
  8
0
100
AcDbBlockReference
  2
block 104
 10
0.0
 20
0.0
 30
0.0
  0
INSERT
  5
3B9
330
1F
100
AcDbEntity
  8
0
100
AcDbBlockReference
  2
block 105
 10
0.0
 20
0.0
 30
0.0
  0
INSERT
  5
3BE
330
1F
100
AcDbEntity
  8
0
100
AcDbBlockReference
  2
block 106
 10
0.0
 20
0.0
 30
0.0
  0
INSERT
  5
3C6
330
1F
100
AcDbEntity
  8
0
100
AcDbBlockReference
  2
block 107
 10
0.0
 20
0.0
 30
0.0
  0
INSERT
  5
3CB
330
1F
100
AcDbEntity
  8
0
100
AcDbBlockReference
  2
block 108
 10
0.0
 20
0.0
 30
0.0
  0
INSERT
  5
3D3
330
1F
100
AcDbEntity
  8
0
100
AcDbBlockReference
  2
block 109
 10
0.0
 20
0.0
 30
0.0
  0
INSERT
  5
3DB
330
1F
100
AcDbEntity
  8
0
100
AcDbBlockReference
  2
block 110
 10
0.0
 20
0.0
 30
0.0
  0
INSERT
  5
3E3
330
1F
100
AcDbEntity
  8
0
100
AcDbBlockReference
  2
block 111
 10
0.0
 20
0.0
 30
0.0
  0
INSERT
  5
3EB
330
1F
100
AcDbEntity
  8
0
100
AcDbBlockReference
  2
block 112
 10
0.0
 20
0.0
 30
0.0
  0
INSERT
  5
3F3
330
1F
100
AcDbEntity
  8
0
100
AcDbBlockReference
  2
block 113
 10
0.0
 20
0.0
 30
0.0
  0
INSERT
  5
3FB
330
1F
100
AcDbEntity
  8
0
100
AcDbBlockReference
  2
block 114
 10
0.0
 20
0.0
 30
0.0
  0
POLYLINE
  5
402
330
1F
100
AcDbEntity
  8
0
 62
     7
420
 16777215
370
    15
100
AcDb2dPolyline
 66
     1
 10
0.0
 20
0.0
 30
0.0
  0
VERTEX
  5
403
330
402
100
AcDbEntity
  8
0
 62
     7
420
 16777215
370
    15
100
AcDbVertex
100
AcDb2dVertex
 10
114.299999971425
 20
199.6632565728326
 30
0.0
  0
VERTEX
  5
404
330
402
100
AcDbEntity
  8
0
 62
     7
420
 16777215
370
    15
100
AcDbVertex
100
AcDb2dVertex
 10
114.9500959562676
 20
199.6632565728326
 30
0.0
  0
SEQEND
  5
405
330
402
100
AcDbEntity
  8
0
 62
     7
420
 16777215
370
    15
  0
POLYLINE
  5
406
330
1F
100
AcDbEntity
  8
0
 62
     7
420
 16777215
370
    15
100
AcDb2dPolyline
 66
     1
 10
0.0
 20
0.0
 30
0.0
  0
VERTEX
  5
407
330
406
100
AcDbEntity
  8
0
 62
     7
420
 16777215
370
    15
100
AcDbVertex
100
AcDb2dVertex
 10
114.299999971425
 20
200.3133554451361
 30
0.0
  0
VERTEX
  5
408
330
406
100
AcDbEntity
  8
0
 62
     7
420
 16777215
370
    15
100
AcDbVertex
100
AcDb2dVertex
 10
114.299999971425
 20
199.6632565728326
 30
0.0
  0
SEQEND
  5
409
330
406
100
AcDbEntity
  8
0
 62
     7
420
 16777215
370
    15
  0
POLYLINE
  5
40A
330
1F
100
AcDbEntity
  8
0
 62
     7
420
 16777215
370
    15
100
AcDb2dPolyline
 66
     1
 10
0.0
 20
0.0
 30
0.0
  0
VERTEX
  5
40B
330
40A
100
AcDbEntity
  8
0
 62
     7
420
 16777215
370
    15
100
AcDbVertex
100
AcDb2dVertex
 10
114.9500959562676
 20
200.3133554451361
 30
0.0
  0
VERTEX
  5
40C
330
40A
100
AcDbEntity
  8
0
 62
     7
420
 16777215
370
    15
100
AcDbVertex
100
AcDb2dVertex
 10
114.299999971425
 20
200.3133554451361
 30
0.0
  0
SEQEND
  5
40D
330
40A
100
AcDbEntity
  8
0
 62
     7
420
 16777215
370
    15
  0
POLYLINE
  5
40E
330
1F
100
AcDbEntity
  8
0
 62
     7
420
 16777215
370
    15
100
AcDb2dPolyline
 66
     1
 10
0.0
 20
0.0
 30
0.0
  0
VERTEX
  5
40F
330
40E
100
AcDbEntity
  8
0
 62
     7
420
 16777215
370
    15
100
AcDbVertex
100
AcDb2dVertex
 10
114.9500959562676
 20
199.6632565728326
 30
0.0
  0
VERTEX
  5
410
330
40E
100
AcDbEntity
  8
0
 62
     7
420
 16777215
370
    15
100
AcDbVertex
100
AcDb2dVertex
 10
114.9500959562676
 20
200.3133554451361
 30
0.0
  0
SEQEND
  5
411
330
40E
100
AcDbEntity
  8
0
 62
     7
420
 16777215
370
    15
  0
POLYLINE
  5
412
330
1F
100
AcDbEntity
  8
0
 62
     7
420
 16777215
370
    15
100
AcDb2dPolyline
 66
     1
 10
0.0
 20
0.0
 30
0.0
  0
VERTEX
  5
413
330
412
100
AcDbEntity
  8
0
 62
     7
420
 16777215
370
    15
100
AcDbVertex
100
AcDb2dVertex
 10
114.299999971425
 20
197.1233624709641
 30
0.0
  0
VERTEX
  5
414
330
412
100
AcDbEntity
  8
0
 62
     7
420
 16777215
370
    15
100
AcDbVertex
100
AcDb2dVertex
 10
114.9500959562676
 20
197.1233624709641
 30
0.0
  0
SEQEND
  5
415
330
412
100
AcDbEntity
  8
0
 62
     7
420
 16777215
370
    15
  0
POLYLINE
  5
416
330
1F
100
AcDbEntity
  8
0
 62
     7
420
 16777215
370
    15
100
AcDb2dPolyline
 66
     1
 10
0.0
 20
0.0
 30
0.0
  0
VERTEX
  5
417
330
416
100
AcDbEntity
  8
0
 62
     7
420
 16777215
370
    15
100
AcDbVertex
100
AcDb2dVertex
 10
114.9500959562676
 20
197.7732849543831
 30
0.0
  0
VERTEX
  5
418
330
416
100
AcDbEntity
  8
0
 62
     7
420
 16777215
370
    15
100
AcDbVertex
100
AcDb2dVertex
 10
114.299999971425
 20
197.7732849543831
 30
0.0
  0
SEQEND
  5
419
330
416
100
AcDbEntity
  8
0
 62
     7
420
 16777215
370
    15
  0
POLYLINE
  5
41A
330
1F
100
AcDbEntity
  8
0
 62
     7
420
 16777215
370
    15
100
AcDb2dPolyline
 66
     1
 10
0.0
 20
0.0
 30
0.0
  0
VERTEX
  5
41B
330
41A
100
AcDbEntity
  8
0
 62
     7
420
 16777215
370
    15
100
AcDbVertex
100
AcDb2dVertex
 10
114.9500959562676
 20
197.1233624709641
 30
0.0
  0
VERTEX
  5
41C
330
41A
100
AcDbEntity
  8
0
 62
     7
420
 16777215
370
    15
100
AcDbVertex
100
AcDb2dVertex
 10
114.9500959562676
 20
197.7732849543831
 30
0.0
  0
SEQEND
  5
41D
330
41A
100
AcDbEntity
  8
0
 62
     7
420
 16777215
370
    15
  0
POLYLINE
  5
41E
330
1F
100
AcDbEntity
  8
0
 62
     7
420
 16777215
370
    15
100
AcDb2dPolyline
 66
     1
 10
0.0
 20
0.0
 30
0.0
  0
VERTEX
  5
41F
330
41E
100
AcDbEntity
  8
0
 62
     7
420
 16777215
370
    15
100
AcDbVertex
100
AcDb2dVertex
 10
114.299999971425
 20
197.7732849543831
 30
0.0
  0
VERTEX
  5
420
330
41E
100
AcDbEntity
  8
0
 62
     7
420
 16777215
370
    15
100
AcDbVertex
100
AcDb2dVertex
 10
114.299999971425
 20
197.1233624709641
 30
0.0
  0
SEQEND
  5
421
330
41E
100
AcDbEntity
  8
0
 62
     7
420
 16777215
370
    15
  0
POLYLINE
  5
422
330
1F
100
AcDbEntity
  8
0
 62
     7
420
 16777215
370
    15
100
AcDb2dPolyline
 66
     1
 10
0.0
 20
0.0
 30
0.0
  0
VERTEX
  5
423
330
422
100
AcDbEntity
  8
0
 62
     7
420
 16777215
370
    15
100
AcDbVertex
100
AcDb2dVertex
 10
114.299999971425
 20
194.5832919802111
 30
0.0
  0
VERTEX
  5
424
330
422
100
AcDbEntity
  8
0
 62
     7
420
 16777215
370
    15
100
AcDbVertex
100
AcDb2dVertex
 10
114.9500959562676
 20
194.5832919802111
 30
0.0
  0
SEQEND
  5
425
330
422
100
AcDbEntity
  8
0
 62
     7
420
 16777215
370
    15
  0
POLYLINE
  5
426
330
1F
100
AcDbEntity
  8
0
 62
     7
420
 16777215
370
    15
100
AcDb2dPolyline
 66
     1
 10
0.0
 20
0.0
 30
0.0
  0
VERTEX
  5
427
330
426
100
AcDbEntity
  8
0
 62
     7
420
 16777215
370
    15
100
AcDbVertex
100
AcDb2dVertex
 10
114.299999971425
 20
195.2333908525146
 30
0.0
  0
VERTEX
  5
428
330
426
100
AcDbEntity
  8
0
 62
     7
420
 16777215
370
    15
100
AcDbVertex
100
AcDb2dVertex
 10
114.299999971425
 20
194.5832919802111
 30
0.0
  0
SEQEND
  5
429
330
426
100
AcDbEntity
  8
0
 62
     7
420
 16777215
370
    15
  0
POLYLINE
  5
42A
330
1F
100
AcDbEntity
  8
0
 62
     7
420
 16777215
370
    15
100
AcDb2dPolyline
 66
     1
 10
0.0
 20
0.0
 30
0.0
  0
VERTEX
  5
42B
330
42A
100
AcDbEntity
  8
0
 62
     7
420
 16777215
370
    15
100
AcDbVertex
100
AcDb2dVertex
 10
114.9500959562676
 20
195.2333908525146
 30
0.0
  0
VERTEX
  5
42C
330
42A
100
AcDbEntity
  8
0
 62
     7
420
 16777215
370
    15
100
AcDbVertex
100
AcDb2dVertex
 10
114.299999971425
 20
195.2333908525146
 30
0.0
  0
SEQEND
  5
42D
330
42A
100
AcDbEntity
  8
0
 62
     7
420
 16777215
370
    15
  0
POLYLINE
  5
42E
330
1F
100
AcDbEntity
  8
0
 62
     7
420
 16777215
370
    15
100
AcDb2dPolyline
 66
     1
 10
0.0
 20
0.0
 30
0.0
  0
VERTEX
  5
42F
330
42E
100
AcDbEntity
  8
0
 62
     7
420
 16777215
370
    15
100
AcDbVertex
100
AcDb2dVertex
 10
114.9500959562676
 20
194.5832919802111
 30
0.0
  0
VERTEX
  5
430
330
42E
100
AcDbEntity
  8
0
 62
     7
420
 16777215
370
    15
100
AcDbVertex
100
AcDb2dVertex
 10
114.9500959562676
 20
195.2333908525146
 30
0.0
  0
SEQEND
  5
431
330
42E
100
AcDbEntity
  8
0
 62
     7
420
 16777215
370
    15
  0
POLYLINE
  5
432
330
1F
100
AcDbEntity
  8
0
 62
     7
420
 16777215
370
    15
100
AcDb2dPolyline
 66
     1
 10
0.0
 20
0.0
 30
0.0
  0
VERTEX
  5
433
330
432
100
AcDbEntity
  8
0
 62
     7
420
 16777215
370
    15
100
AcDbVertex
100
AcDb2dVertex
 10
114.299999971425
 20
192.0434027297669
 30
0.0
  0
VERTEX
  5
434
330
432
100
AcDbEntity
  8
0
 62
     7
420
 16777215
370
    15
100
AcDbVertex
100
AcDb2dVertex
 10
114.9500959562676
 20
192.0434027297669
 30
0.0
  0
SEQEND
  5
435
330
432
100
AcDbEntity
  8
0
 62
     7
420
 16777215
370
    15
  0
POLYLINE
  5
436
330
1F
100
AcDbEntity
  8
0
 62
     7
420
 16777215
370
    15
100
AcDb2dPolyline
 66
     1
 10
0.0
 20
0.0
 30
0.0
  0
VERTEX
  5
437
330
436
100
AcDbEntity
  8
0
 62
     7
420
 16777215
370
    15
100
AcDbVertex
100
AcDb2dVertex
 10
114.299999971425
 20
192.6933203617616
 30
0.0
  0
VERTEX
  5
438
330
436
100
AcDbEntity
  8
0
 62
     7
420
 16777215
370
    15
100
AcDbVertex
100
AcDb2dVertex
 10
114.299999971425
 20
192.0434027297669
 30
0.0
  0
SEQEND
  5
439
330
436
100
AcDbEntity
  8
0
 62
     7
420
 16777215
370
    15
  0
POLYLINE
  5
43A
330
1F
100
AcDbEntity
  8
0
 62
     7
420
 16777215
370
    15
100
AcDb2dPolyline
 66
     1
 10
0.0
 20
0.0
 30
0.0
  0
VERTEX
  5
43B
330
43A
100
AcDbEntity
  8
0
 62
     7
420
 16777215
370
    15
100
AcDbVertex
100
AcDb2dVertex
 10
114.9500959562676
 20
192.6933203617616
 30
0.0
  0
VERTEX
  5
43C
330
43A
100
AcDbEntity
  8
0
 62
     7
420
 16777215
370
    15
100
AcDbVertex
100
AcDb2dVertex
 10
114.299999971425
 20
192.6933203617616
 30
0.0
  0
SEQEND
  5
43D
330
43A
100
AcDbEntity
  8
0
 62
     7
420
 16777215
370
    15
  0
POLYLINE
  5
43E
330
1F
100
AcDbEntity
  8
0
 62
     7
420
 16777215
370
    15
100
AcDb2dPolyline
 66
     1
 10
0.0
 20
0.0
 30
0.0
  0
VERTEX
  5
43F
330
43E
100
AcDbEntity
  8
0
 62
     7
420
 16777215
370
    15
100
AcDbVertex
100
AcDb2dVertex
 10
114.9500959562676
 20
192.0434027297669
 30
0.0
  0
VERTEX
  5
440
330
43E
100
AcDbEntity
  8
0
 62
     7
420
 16777215
370
    15
100
AcDbVertex
100
AcDb2dVertex
 10
114.9500959562676
 20
192.6933203617616
 30
0.0
  0
SEQEND
  5
441
330
43E
100
AcDbEntity
  8
0
 62
     7
420
 16777215
370
    15
  0
POLYLINE
  5
442
330
1F
100
AcDbEntity
  8
0
 62
     7
420
 16777215
370
    15
100
AcDb2dPolyline
 66
     1
 10
0.0
 20
0.0
 30
0.0
  0
VERTEX
  5
443
330
442
100
AcDbEntity
  8
0
 62
     7
420
 16777215
370
    15
100
AcDbVertex
100
AcDb2dVertex
 10
114.299999971425
 20
199.6632565728326
 30
0.0
  0
VERTEX
  5
444
330
442
100
AcDbEntity
  8
0
 62
     7
420
 16777215
370
    15
100
AcDbVertex
100
AcDb2dVertex
 10
114.243164585414
 20
199.6632565728326
 30
0.0
  0
SEQEND
  5
445
330
442
100
AcDbEntity
  8
0
 62
     7
420
 16777215
370
    15
  0
POLYLINE
  5
446
330
1F
100
AcDbEntity
  8
0
 62
     7
420
 16777215
370
    15
100
AcDb2dPolyline
 66
     1
 10
0.0
 20
0.0
 30
0.0
  0
VERTEX
  5
447
330
446
100
AcDbEntity
  8
0
 62
     7
420
 16777215
370
    15
100
AcDbVertex
100
AcDb2dVertex
 10
114.2073223641062
 20
200.3133554451361
 30
0.0
  0
VERTEX
  5
448
330
446
100
AcDbEntity
  8
0
 62
     7
420
 16777215
370
    15
100
AcDbVertex
100
AcDb2dVertex
 10
114.299999971425
 20
200.3133554451361
 30
0.0
  0
SEQEND
  5
449
330
446
100
AcDbEntity
  8
0
 62
     7
420
 16777215
370
    15
  0
POLYLINE
  5
44A
330
1F
100
AcDbEntity
  8
0
 62
     7
420
 16777215
370
    15
100
AcDb2dPolyline
 66
     1
 10
0.0
 20
0.0
 30
0.0
  0
VERTEX
  5
44B
330
44A
100
AcDbEntity
  8
0
 62
     7
420
 16777215
370
    15
100
AcDbVertex
100
AcDb2dVertex
 10
114.299999971425
 20
197.1233624709641
 30
0.0
  0
VERTEX
  5
44C
330
44A
100
AcDbEntity
  8
0
 62
     7
420
 16777215
370
    15
100
AcDbVertex
100
AcDb2dVertex
 10
114.243164585414
 20
197.1233624709641
 30
0.0
  0
SEQEND
  5
44D
330
44A
100
AcDbEntity
  8
0
 62
     7
420
 16777215
370
    15
  0
POLYLINE
  5
44E
330
1F
100
AcDbEntity
  8
0
 62
     7
420
 16777215
370
    15
100
AcDb2dPolyline
 66
     1
 10
0.0
 20
0.0
 30
0.0
  0
VERTEX
  5
44F
330
44E
100
AcDbEntity
  8
0
 62
     7
420
 16777215
370
    15
100
AcDbVertex
100
AcDb2dVertex
 10
114.299999971425
 20
194.5832919802111
 30
0.0
  0
VERTEX
  5
450
330
44E
100
AcDbEntity
  8
0
 62
     7
420
 16777215
370
    15
100
AcDbVertex
100
AcDb2dVertex
 10
114.243164585414
 20
194.5832919802111
 30
0.0
  0
SEQEND
  5
451
330
44E
100
AcDbEntity
  8
0
 62
     7
420
 16777215
370
    15
  0
POLYLINE
  5
452
330
1F
100
AcDbEntity
  8
0
 62
     7
420
 16777215
370
    15
100
AcDb2dPolyline
 66
     1
 10
0.0
 20
0.0
 30
0.0
  0
VERTEX
  5
453
330
452
100
AcDbEntity
  8
0
 62
     7
420
 16777215
370
    15
100
AcDbVertex
100
AcDb2dVertex
 10
114.2073223641062
 20
195.2333908525146
 30
0.0
  0
VERTEX
  5
454
330
452
100
AcDbEntity
  8
0
 62
     7
420
 16777215
370
    15
100
AcDbVertex
100
AcDb2dVertex
 10
114.299999971425
 20
195.2333908525146
 30
0.0
  0
SEQEND
  5
455
330
452
100
AcDbEntity
  8
0
 62
     7
420
 16777215
370
    15
  0
POLYLINE
  5
456
330
1F
100
AcDbEntity
  8
0
 62
     7
420
 16777215
370
    15
100
AcDb2dPolyline
 66
     1
 10
0.0
 20
0.0
 30
0.0
  0
VERTEX
  5
457
330
456
100
AcDbEntity
  8
0
 62
     7
420
 16777215
370
    15
100
AcDbVertex
100
AcDb2dVertex
 10
114.299999971425
 20
192.0434027297669
 30
0.0
  0
VERTEX
  5
458
330
456
100
AcDbEntity
  8
0
 62
     7
420
 16777215
370
    15
100
AcDbVertex
100
AcDb2dVertex
 10
114.243164585414
 20
192.0434027297669
 30
0.0
  0
SEQEND
  5
459
330
456
100
AcDbEntity
  8
0
 62
     7
420
 16777215
370
    15
  0
POLYLINE
  5
45A
330
1F
100
AcDbEntity
  8
0
 62
     7
420
 16777215
370
    15
100
AcDb2dPolyline
 66
     1
 10
0.0
 20
0.0
 30
0.0
  0
VERTEX
  5
45B
330
45A
100
AcDbEntity
  8
0
 62
     7
420
 16777215
370
    15
100
AcDbVertex
100
AcDb2dVertex
 10
114.2073223641062
 20
192.6933203617616
 30
0.0
  0
VERTEX
  5
45C
330
45A
100
AcDbEntity
  8
0
 62
     7
420
 16777215
370
    15
100
AcDbVertex
100
AcDb2dVertex
 10
114.299999971425
 20
192.6933203617616
 30
0.0
  0
SEQEND
  5
45D
330
45A
100
AcDbEntity
  8
0
 62
     7
420
 16777215
370
    15
  0
SPLINE
  5
45E
330
1F
100
AcDbEntity
  8
0
 62
     7
420
 16777215
370
    15
100
AcDbSpline
210
0.0
220
0.0
230
1.0
 70
    11
 71
     3
 72
    20
 73
    16
 74
     0
 42
0.0000000001
 43
0.0000000001
 12
1.0
 22
0.0
 32
0.0
 13
1.0
 23
0.0
 33
0.0
 40
0.0
 40
0.0
 40
0.0
 40
0.0
 40
1.0
 40
1.0
 40
1.0
 40
2.0
 40
2.0
 40
2.0
 40
3.0
 40
3.0
 40
3.0
 40
4.0
 40
4.0
 40
4.0
 40
5.0
 40
5.0
 40
5.0
 40
5.0
 10
115.1040834523391
 20
192.389296480629
 30
0.0
 10
115.1040834523391
 20
192.6654156402513
 30
0.0
 10
114.8804929024878
 20
192.889182578987
 30
0.0
 10
114.6041973539811
 20
192.889182578987
 30
0.0
 10
114.3282545832432
 20
192.889182578987
 30
0.0
 10
114.1043112556232
 20
192.6654156402513
 30
0.0
 10
114.1043112556232
 20
192.389296480629
 30
0.0
 10
114.1043112556232
 20
192.1130009321224
 30
0.0
 10
114.3282545832432
 20
191.8892388409166
 30
0.0
 10
114.6041973539811
 20
191.8892388409166
 30
0.0
 10
114.8804929024878
 20
191.8892388409166
 30
0.0
 10
115.1040834523391
 20
192.1130009321224
 30
0.0
 10
115.1040834523391
 20
192.389296480629
 30
0.0
 10
115.1040834523391
 20
192.389296480629
 30
0.0
 10
115.1040834523391
 20
192.389296480629
 30
0.0
 10
115.1040834523391
 20
192.389296480629
 30
0.0
  0
SPLINE
  5
45F
330
1F
100
AcDbEntity
  8
0
 62
     7
420
 16777215
370
    15
100
AcDbSpline
210
0.0
220
0.0
230
1.0
 70
    11
 71
     3
 72
    20
 73
    16
 74
     0
 42
0.0000000001
 43
0.0000000001
 12
1.0
 22
0.0
 32
0.0
 13
1.0
 23
0.0
 33
0.0
 40
0.0
 40
0.0
 40
0.0
 40
0.0
 40
1.0
 40
1.0
 40
1.0
 40
2.0
 40
2.0
 40
2.0
 40
3.0
 40
3.0
 40
3.0
 40
4.0
 40
4.0
 40
4.0
 40
5.0
 40
5.0
 40
5.0
 40
5.0
 10
115.1040834523391
 20
197.4692610732505
 30
0.0
 10
115.1040834523391
 20
197.7453802328728
 30
0.0
 10
114.8804929024878
 20
197.9691471716085
 30
0.0
 10
114.6041973539811
 20
197.9691471716085
 30
0.0
 10
114.3282545832432
 20
197.9691471716085
 30
0.0
 10
114.1043112556232
 20
197.7453802328728
 30
0.0
 10
114.1043112556232
 20
197.4692610732505
 30
0.0
 10
114.1043112556232
 20
197.1931419136283
 30
0.0
 10
114.3282545832432
 20
196.9691985860082
 30
0.0
 10
114.6041973539811
 20
196.9691985860082
 30
0.0
 10
114.8804929024878
 20
196.9691985860082
 30
0.0
 10
115.1040834523391
 20
197.1931419136283
 30
0.0
 10
115.1040834523391
 20
197.4692610732505
 30
0.0
 10
115.1040834523391
 20
197.4692610732505
 30
0.0
 10
115.1040834523391
 20
197.4692610732505
 30
0.0
 10
115.1040834523391
 20
197.4692610732505
 30
0.0
  0
POLYLINE
  5
460
330
1F
100
AcDbEntity
  8
0
 62
     7
420
 16777215
370
    15
100
AcDb2dPolyline
 66
     1
 10
0.0
 20
0.0
 30
0.0
  0
VERTEX
  5
461
330
460
100
AcDbEntity
  8
0
 62
     7
420
 16777215
370
    15
100
AcDbVertex
100
AcDb2dVertex
 10
-8.14574472018573
 20
188.6992410192146
 30
0.0
  0
VERTEX
  5
462
330
460
100
AcDbEntity
  8
0
 62
     7
420
 16777215
370
    15
100
AcDbVertex
100
AcDb2dVertex
 10
241.3540746758779
 20
188.6992410192146
 30
0.0
  0
SEQEND
  5
463
330
460
100
AcDbEntity
  8
0
 62
     7
420
 16777215
370
    15
  0
SPLINE
  5
464
330
1F
100
AcDbEntity
  8
0
 62
     7
420
 16777215
370
    15
100
AcDbSpline
210
0.0
220
0.0
230
1.0
 70
    11
 71
     3
 72
    20
 73
    16
 74
     0
 42
0.0000000001
 43
0.0000000001
 12
1.0
 22
0.0
 32
0.0
 13
1.0
 23
0.0
 33
0.0
 40
0.0
 40
0.0
 40
0.0
 40
0.0
 40
1.0
 40
1.0
 40
1.0
 40
2.0
 40
2.0
 40
2.0
 40
3.0
 40
3.0
 40
3.0
 40
4.0
 40
4.0
 40
4.0
 40
5.0
 40
5.0
 40
5.0
 40
5.0
 10
18.70410138421298
 20
196.1992258278741
 30
0.0
 10
18.70410138421298
 20
197.3590180205075
 30
0.0
 10
17.76394860667025
 20
198.2991707743
 30
0.0
 10
16.6039799958489
 20
198.2991707743
 30
0.0
 10
15.44436416280563
 20
198.2991707743
 30
0.0
 10
14.5042113852629
 20
197.3590180205075
 30
0.0
 10
14.5042113852629
 20
196.1992258278741
 30
0.0
 10
14.5042113852629
 20
195.0394336352406
 30
0.0
 10
15.44436416280563
 20
194.0992456036712
 30
0.0
 10
16.6039799958489
 20
194.0992456036712
 30
0.0
 10
17.76394860667025
 20
194.0992456036712
 30
0.0
 10
18.70410138421298
 20
195.0394336352406
 30
0.0
 10
18.70410138421298
 20
196.1992258278741
 30
0.0
 10
18.70410138421298
 20
196.1992258278741
 30
0.0
 10
18.70410138421298
 20
196.1992258278741
 30
0.0
 10
18.70410138421298
 20
196.1992258278741
 30
0.0
  0
SPLINE
  5
465
330
1F
100
AcDbEntity
  8
0
 62
     7
420
 16777215
370
    15
100
AcDbSpline
210
0.0
220
0.0
230
1.0
 70
    11
 71
     3
 72
    20
 73
    16
 74
     0
 42
0.0000000001
 43
0.0000000001
 12
1.0
 22
0.0
 32
0.0
 13
1.0
 23
0.0
 33
0.0
 40
0.0
 40
0.0
 40
0.0
 40
0.0
 40
1.0
 40
1.0
 40
1.0
 40
2.0
 40
2.0
 40
2.0
 40
3.0
 40
3.0
 40
3.0
 40
4.0
 40
4.0
 40
4.0
 40
5.0
 40
5.0
 40
5.0
 40
5.0
 10
115.1040834523391
 20
200.0091551751191
 30
0.0
 10
115.1040834523391
 20
200.2852743347414
 30
0.0
 10
114.8804929024878
 20
200.5092176623615
 30
0.0
 10
114.6041973539811
 20
200.5092176623615
 30
0.0
 10
114.3282545832432
 20
200.5092176623615
 30
0.0
 10
114.1043112556232
 20
200.2852743347414
 30
0.0
 10
114.1043112556232
 20
200.0091551751191
 30
0.0
 10
114.1043112556232
 20
199.7330360154969
 30
0.0
 10
114.3282545832432
 20
199.5092690767612
 30
0.0
 10
114.6041973539811
 20
199.5092690767612
 30
0.0
 10
114.8804929024878
 20
199.5092690767612
 30
0.0
 10
115.1040834523391
 20
199.7330360154969
 30
0.0
 10
115.1040834523391
 20
200.0091551751191
 30
0.0
 10
115.1040834523391
 20
200.0091551751191
 30
0.0
 10
115.1040834523391
 20
200.0091551751191
 30
0.0
 10
115.1040834523391
 20
200.0091551751191
 30
0.0
  0
SPLINE
  5
466
330
1F
100
AcDbEntity
  8
0
 62
     7
420
 16777215
370
    15
100
AcDbSpline
210
0.0
220
0.0
230
1.0
 70
    11
 71
     3
 72
    20
 73
    16
 74
     0
 42
0.0000000001
 43
0.0000000001
 12
1.0
 22
0.0
 32
0.0
 13
1.0
 23
0.0
 33
0.0
 40
0.0
 40
0.0
 40
0.0
 40
0.0
 40
1.0
 40
1.0
 40
1.0
 40
2.0
 40
2.0
 40
2.0
 40
3.0
 40
3.0
 40
3.0
 40
4.0
 40
4.0
 40
4.0
 40
5.0
 40
5.0
 40
5.0
 40
5.0
 10
115.1040834523391
 20
194.9291905824976
 30
0.0
 10
115.1040834523391
 20
195.2053097421199
 30
0.0
 10
114.8804929024878
 20
195.4292530697399
 30
0.0
 10
114.6041973539811
 20
195.4292530697399
 30
0.0
 10
114.3282545832432
 20
195.4292530697399
 30
0.0
 10
114.1043112556232
 20
195.2053097421199
 30
0.0
 10
114.1043112556232
 20
194.9291905824976
 30
0.0
 10
114.1043112556232
 20
194.6530714228753
 30
0.0
 10
114.3282545832432
 20
194.4291280952553
 30
0.0
 10
114.6041973539811
 20
194.4291280952553
 30
0.0
 10
114.8804929024878
 20
194.4291280952553
 30
0.0
 10
115.1040834523391
 20
194.6530714228753
 30
0.0
 10
115.1040834523391
 20
194.9291905824976
 30
0.0
 10
115.1040834523391
 20
194.9291905824976
 30
0.0
 10
115.1040834523391
 20
194.9291905824976
 30
0.0
 10
115.1040834523391
 20
194.9291905824976
 30
0.0
  0
POLYLINE
  5
467
330
1F
100
AcDbEntity
  8
0
 62
     7
420
 16777215
370
    15
100
AcDb2dPolyline
 66
     1
 10
0.0
 20
0.0
 30
0.0
  0
VERTEX
  5
468
330
467
100
AcDbEntity
  8
0
 62
     7
420
 16777215
370
    15
100
AcDbVertex
100
AcDb2dVertex
 10
-8.14574472018573
 20
203.6991805046308
 30
0.0
  0
VERTEX
  5
469
330
467
100
AcDbEntity
  8
0
 62
     7
420
 16777215
370
    15
100
AcDbVertex
100
AcDb2dVertex
 10
-8.14574472018573
 20
188.6992410192146
 30
0.0
  0
SEQEND
  5
46A
330
467
100
AcDbEntity
  8
0
 62
     7
420
 16777215
370
    15
  0
POLYLINE
  5
46B
330
1F
100
AcDbEntity
  8
0
 62
     7
420
 16777215
370
    15
100
AcDb2dPolyline
 66
     1
 10
0.0
 20
0.0
 30
0.0
  0
VERTEX
  5
46C
330
46B
100
AcDbEntity
  8
0
 62
     7
420
 16777215
370
    15
100
AcDbVertex
100
AcDb2dVertex
 10
241.3540746758779
 20
188.6992410192146
 30
0.0
  0
VERTEX
  5
46D
330
46B
100
AcDbEntity
  8
0
 62
     7
420
 16777215
370
    15
100
AcDbVertex
100
AcDb2dVertex
 10
241.3540746758779
 20
203.6991805046308
 30
0.0
  0
SEQEND
  5
46E
330
46B
100
AcDbEntity
  8
0
 62
     7
420
 16777215
370
    15
  0
POLYLINE
  5
46F
330
1F
100
AcDbEntity
  8
0
 62
     7
420
 16777215
370
    15
100
AcDb2dPolyline
 66
     1
 10
0.0
 20
0.0
 30
0.0
  0
VERTEX
  5
470
330
46F
100
AcDbEntity
  8
0
 62
     7
420
 16777215
370
    15
100
AcDbVertex
100
AcDb2dVertex
 10
241.3540746758779
 20
203.6991805046308
 30
0.0
  0
VERTEX
  5
471
330
46F
100
AcDbEntity
  8
0
 62
     7
420
 16777215
370
    15
100
AcDbVertex
100
AcDb2dVertex
 10
-8.14574472018573
 20
203.6991805046308
 30
0.0
  0
SEQEND
  5
472
330
46F
100
AcDbEntity
  8
0
 62
     7
420
 16777215
370
    15
  0
SPLINE
  5
473
330
1F
100
AcDbEntity
  8
0
 62
     7
420
 16777215
370
    25
100
AcDbSpline
210
0.0
220
0.0
230
1.0
 70
    11
 71
     3
 72
    29
 73
    25
 74
     0
 42
0.0000000001
 43
0.0000000001
 12
1.0
 22
0.0
 32
0.0
 13
1.0
 23
0.0
 33
0.0
 40
0.0
 40
0.0
 40
0.0
 40
0.0
 40
1.0
 40
1.0
 40
1.0
 40
2.0
 40
2.0
 40
2.0
 40
3.0
 40
3.0
 40
3.0
 40
4.0
 40
4.0
 40
4.0
 40
5.0
 40
5.0
 40
5.0
 40
6.0
 40
6.0
 40
6.0
 40
7.0
 40
7.0
 40
7.0
 40
8.0
 40
8.0
 40
8.0
 40
8.0
 10
-1.595769110712147
 20
194.4490953169681
 30
0.0
 10
-1.595769110712147
 20
194.4490953169681
 30
0.0
 10
-2.695786665992694
 20
194.4490953169681
 30
0.0
 10
-2.695786665992694
 20
194.4490953169681
 30
0.0
 10
-3.358451499160363
 20
194.4490953169681
 30
0.0
 10
-3.895724999025951
 20
194.9865522477008
 30
0.0
 10
-3.895724999025951
 20
195.6492100085728
 30
0.0
 10
-3.895724999025951
 20
195.6492100085728
 30
0.0
 10
-3.895724999025951
 20
196.7492416471753
 30
0.0
 10
-3.895724999025951
 20
196.7492416471753
 30
0.0
 10
-3.895724999025951
 20
197.4118994080473
 30
0.0
 10
-3.358451499160363
 20
197.9491446721188
 30
0.0
 10
-2.695786665992694
 20
197.9491446721188
 30
0.0
 10
-2.695786665992694
 20
197.9491446721188
 30
0.0
 10
-1.595769110712147
 20
197.9491446721188
 30
0.0
 10
-1.595769110712147
 20
197.9491446721188
 30
0.0
 10
-0.9331042775444776
 20
197.9491446721188
 30
0.0
 10
-0.3958413610122739
 20
197.4118994080473
 30
0.0
 10
-0.3958413610122739
 20
196.7492416471753
 30
0.0
 10
-0.3958413610122739
 20
196.7492416471753
 30
0.0
 10
-0.3958413610122739
 20
195.6492100085728
 30
0.0
 10
-0.3958413610122739
 20
195.6492100085728
 30
0.0
 10
-0.3958413610122739
 20
194.9865522477008
 30
0.0
 10
-0.9331042775444776
 20
194.4490953169681
 30
0.0
 10
-1.595769110712147
 20
194.4490953169681
 30
0.0
  0
POLYLINE
  5
474
330
1F
100
AcDbEntity
  8
0
 62
     7
420
 16777215
370
    15
100
AcDb2dPolyline
 66
     1
 10
0.0
 20
0.0
 30
0.0
  0
VERTEX
  5
475
330
474
100
AcDbEntity
  8
0
 62
     7
420
 16777215
370
    15
100
AcDbVertex
100
AcDb2dVertex
 10
118.3001089263572
 20
199.6632565728326
 30
0.0
  0
VERTEX
  5
476
330
474
100
AcDbEntity
  8
0
 62
     7
420
 16777215
370
    15
100
AcDbVertex
100
AcDb2dVertex
 10
118.9501725208838
 20
199.6632565728326
 30
0.0
  0
SEQEND
  5
477
330
474
100
AcDbEntity
  8
0
 62
     7
420
 16777215
370
    15
  0
POLYLINE
  5
478
330
1F
100
AcDbEntity
  8
0
 62
     7
420
 16777215
370
    15
100
AcDb2dPolyline
 66
     1
 10
0.0
 20
0.0
 30
0.0
  0
VERTEX
  5
479
330
478
100
AcDbEntity
  8
0
 62
     7
420
 16777215
370
    15
100
AcDbVertex
100
AcDb2dVertex
 10
118.3001089263572
 20
200.3133554451361
 30
0.0
  0
VERTEX
  5
47A
330
478
100
AcDbEntity
  8
0
 62
     7
420
 16777215
370
    15
100
AcDbVertex
100
AcDb2dVertex
 10
118.3001089263572
 20
199.6632565728326
 30
0.0
  0
SEQEND
  5
47B
330
478
100
AcDbEntity
  8
0
 62
     7
420
 16777215
370
    15
  0
POLYLINE
  5
47C
330
1F
100
AcDbEntity
  8
0
 62
     7
420
 16777215
370
    15
100
AcDb2dPolyline
 66
     1
 10
0.0
 20
0.0
 30
0.0
  0
VERTEX
  5
47D
330
47C
100
AcDbEntity
  8
0
 62
     7
420
 16777215
370
    15
100
AcDbVertex
100
AcDb2dVertex
 10
118.9501725208838
 20
200.3133554451361
 30
0.0
  0
VERTEX
  5
47E
330
47C
100
AcDbEntity
  8
0
 62
     7
420
 16777215
370
    15
100
AcDbVertex
100
AcDb2dVertex
 10
118.3001089263572
 20
200.3133554451361
 30
0.0
  0
SEQEND
  5
47F
330
47C
100
AcDbEntity
  8
0
 62
     7
420
 16777215
370
    15
  0
POLYLINE
  5
480
330
1F
100
AcDbEntity
  8
0
 62
     7
420
 16777215
370
    15
100
AcDb2dPolyline
 66
     1
 10
0.0
 20
0.0
 30
0.0
  0
VERTEX
  5
481
330
480
100
AcDbEntity
  8
0
 62
     7
420
 16777215
370
    15
100
AcDbVertex
100
AcDb2dVertex
 10
118.9501725208838
 20
199.6632565728326
 30
0.0
  0
VERTEX
  5
482
330
480
100
AcDbEntity
  8
0
 62
     7
420
 16777215
370
    15
100
AcDbVertex
100
AcDb2dVertex
 10
118.9501725208838
 20
200.3133554451361
 30
0.0
  0
SEQEND
  5
483
330
480
100
AcDbEntity
  8
0
 62
     7
420
 16777215
370
    15
  0
POLYLINE
  5
484
330
1F
100
AcDbEntity
  8
0
 62
     7
420
 16777215
370
    15
100
AcDb2dPolyline
 66
     1
 10
0.0
 20
0.0
 30
0.0
  0
VERTEX
  5
485
330
484
100
AcDbEntity
  8
0
 62
     7
420
 16777215
370
    15
100
AcDbVertex
100
AcDb2dVertex
 10
118.3001089263572
 20
197.1233624709641
 30
0.0
  0
VERTEX
  5
486
330
484
100
AcDbEntity
  8
0
 62
     7
420
 16777215
370
    15
100
AcDbVertex
100
AcDb2dVertex
 10
118.9501725208838
 20
197.1233624709641
 30
0.0
  0
SEQEND
  5
487
330
484
100
AcDbEntity
  8
0
 62
     7
420
 16777215
370
    15
  0
POLYLINE
  5
488
330
1F
100
AcDbEntity
  8
0
 62
     7
420
 16777215
370
    15
100
AcDb2dPolyline
 66
     1
 10
0.0
 20
0.0
 30
0.0
  0
VERTEX
  5
489
330
488
100
AcDbEntity
  8
0
 62
     7
420
 16777215
370
    15
100
AcDbVertex
100
AcDb2dVertex
 10
118.9501725208838
 20
197.7732849543831
 30
0.0
  0
VERTEX
  5
48A
330
488
100
AcDbEntity
  8
0
 62
     7
420
 16777215
370
    15
100
AcDbVertex
100
AcDb2dVertex
 10
118.3001089263572
 20
197.7732849543831
 30
0.0
  0
SEQEND
  5
48B
330
488
100
AcDbEntity
  8
0
 62
     7
420
 16777215
370
    15
  0
POLYLINE
  5
48C
330
1F
100
AcDbEntity
  8
0
 62
     7
420
 16777215
370
    15
100
AcDb2dPolyline
 66
     1
 10
0.0
 20
0.0
 30
0.0
  0
VERTEX
  5
48D
330
48C
100
AcDbEntity
  8
0
 62
     7
420
 16777215
370
    15
100
AcDbVertex
100
AcDb2dVertex
 10
118.9501725208838
 20
197.1233624709641
 30
0.0
  0
VERTEX
  5
48E
330
48C
100
AcDbEntity
  8
0
 62
     7
420
 16777215
370
    15
100
AcDbVertex
100
AcDb2dVertex
 10
118.9501725208838
 20
197.7732849543831
 30
0.0
  0
SEQEND
  5
48F
330
48C
100
AcDbEntity
  8
0
 62
     7
420
 16777215
370
    15
  0
POLYLINE
  5
490
330
1F
100
AcDbEntity
  8
0
 62
     7
420
 16777215
370
    15
100
AcDb2dPolyline
 66
     1
 10
0.0
 20
0.0
 30
0.0
  0
VERTEX
  5
491
330
490
100
AcDbEntity
  8
0
 62
     7
420
 16777215
370
    15
100
AcDbVertex
100
AcDb2dVertex
 10
118.3001089263572
 20
197.7732849543831
 30
0.0
  0
VERTEX
  5
492
330
490
100
AcDbEntity
  8
0
 62
     7
420
 16777215
370
    15
100
AcDbVertex
100
AcDb2dVertex
 10
118.3001089263572
 20
197.1233624709641
 30
0.0
  0
SEQEND
  5
493
330
490
100
AcDbEntity
  8
0
 62
     7
420
 16777215
370
    15
  0
POLYLINE
  5
494
330
1F
100
AcDbEntity
  8
0
 62
     7
420
 16777215
370
    15
100
AcDb2dPolyline
 66
     1
 10
0.0
 20
0.0
 30
0.0
  0
VERTEX
  5
495
330
494
100
AcDbEntity
  8
0
 62
     7
420
 16777215
370
    15
100
AcDbVertex
100
AcDb2dVertex
 10
118.3001089263572
 20
194.5832919802111
 30
0.0
  0
VERTEX
  5
496
330
494
100
AcDbEntity
  8
0
 62
     7
420
 16777215
370
    15
100
AcDbVertex
100
AcDb2dVertex
 10
118.9501725208838
 20
194.5832919802111
 30
0.0
  0
SEQEND
  5
497
330
494
100
AcDbEntity
  8
0
 62
     7
420
 16777215
370
    15
  0
POLYLINE
  5
498
330
1F
100
AcDbEntity
  8
0
 62
     7
420
 16777215
370
    15
100
AcDb2dPolyline
 66
     1
 10
0.0
 20
0.0
 30
0.0
  0
VERTEX
  5
499
330
498
100
AcDbEntity
  8
0
 62
     7
420
 16777215
370
    15
100
AcDbVertex
100
AcDb2dVertex
 10
118.3001089263572
 20
195.2333908525146
 30
0.0
  0
VERTEX
  5
49A
330
498
100
AcDbEntity
  8
0
 62
     7
420
 16777215
370
    15
100
AcDbVertex
100
AcDb2dVertex
 10
118.3001089263572
 20
194.5832919802111
 30
0.0
  0
SEQEND
  5
49B
330
498
100
AcDbEntity
  8
0
 62
     7
420
 16777215
370
    15
  0
POLYLINE
  5
49C
330
1F
100
AcDbEntity
  8
0
 62
     7
420
 16777215
370
    15
100
AcDb2dPolyline
 66
     1
 10
0.0
 20
0.0
 30
0.0
  0
VERTEX
  5
49D
330
49C
100
AcDbEntity
  8
0
 62
     7
420
 16777215
370
    15
100
AcDbVertex
100
AcDb2dVertex
 10
118.9501725208838
 20
195.2333908525146
 30
0.0
  0
VERTEX
  5
49E
330
49C
100
AcDbEntity
  8
0
 62
     7
420
 16777215
370
    15
100
AcDbVertex
100
AcDb2dVertex
 10
118.3001089263572
 20
195.2333908525146
 30
0.0
  0
SEQEND
  5
49F
330
49C
100
AcDbEntity
  8
0
 62
     7
420
 16777215
370
    15
  0
POLYLINE
  5
4A0
330
1F
100
AcDbEntity
  8
0
 62
     7
420
 16777215
370
    15
100
AcDb2dPolyline
 66
     1
 10
0.0
 20
0.0
 30
0.0
  0
VERTEX
  5
4A1
330
4A0
100
AcDbEntity
  8
0
 62
     7
420
 16777215
370
    15
100
AcDbVertex
100
AcDb2dVertex
 10
118.9501725208838
 20
194.5832919802111
 30
0.0
  0
VERTEX
  5
4A2
330
4A0
100
AcDbEntity
  8
0
 62
     7
420
 16777215
370
    15
100
AcDbVertex
100
AcDb2dVertex
 10
118.9501725208838
 20
195.2333908525146
 30
0.0
  0
SEQEND
  5
4A3
330
4A0
100
AcDbEntity
  8
0
 62
     7
420
 16777215
370
    15
  0
POLYLINE
  5
4A4
330
1F
100
AcDbEntity
  8
0
 62
     7
420
 16777215
370
    15
100
AcDb2dPolyline
 66
     1
 10
0.0
 20
0.0
 30
0.0
  0
VERTEX
  5
4A5
330
4A4
100
AcDbEntity
  8
0
 62
     7
420
 16777215
370
    15
100
AcDbVertex
100
AcDb2dVertex
 10
118.3001089263572
 20
192.0434027297669
 30
0.0
  0
VERTEX
  5
4A6
330
4A4
100
AcDbEntity
  8
0
 62
     7
420
 16777215
370
    15
100
AcDbVertex
100
AcDb2dVertex
 10
118.9501725208838
 20
192.0434027297669
 30
0.0
  0
SEQEND
  5
4A7
330
4A4
100
AcDbEntity
  8
0
 62
     7
420
 16777215
370
    15
  0
POLYLINE
  5
4A8
330
1F
100
AcDbEntity
  8
0
 62
     7
420
 16777215
370
    15
100
AcDb2dPolyline
 66
     1
 10
0.0
 20
0.0
 30
0.0
  0
VERTEX
  5
4A9
330
4A8
100
AcDbEntity
  8
0
 62
     7
420
 16777215
370
    15
100
AcDbVertex
100
AcDb2dVertex
 10
118.3001089263572
 20
192.6933203617616
 30
0.0
  0
VERTEX
  5
4AA
330
4A8
100
AcDbEntity
  8
0
 62
     7
420
 16777215
370
    15
100
AcDbVertex
100
AcDb2dVertex
 10
118.3001089263572
 20
192.0434027297669
 30
0.0
  0
SEQEND
  5
4AB
330
4A8
100
AcDbEntity
  8
0
 62
     7
420
 16777215
370
    15
  0
POLYLINE
  5
4AC
330
1F
100
AcDbEntity
  8
0
 62
     7
420
 16777215
370
    15
100
AcDb2dPolyline
 66
     1
 10
0.0
 20
0.0
 30
0.0
  0
VERTEX
  5
4AD
330
4AC
100
AcDbEntity
  8
0
 62
     7
420
 16777215
370
    15
100
AcDbVertex
100
AcDb2dVertex
 10
118.9501725208838
 20
192.6933203617616
 30
0.0
  0
VERTEX
  5
4AE
330
4AC
100
AcDbEntity
  8
0
 62
     7
420
 16777215
370
    15
100
AcDbVertex
100
AcDb2dVertex
 10
118.3001089263572
 20
192.6933203617616
 30
0.0
  0
SEQEND
  5
4AF
330
4AC
100
AcDbEntity
  8
0
 62
     7
420
 16777215
370
    15
  0
POLYLINE
  5
4B0
330
1F
100
AcDbEntity
  8
0
 62
     7
420
 16777215
370
    15
100
AcDb2dPolyline
 66
     1
 10
0.0
 20
0.0
 30
0.0
  0
VERTEX
  5
4B1
330
4B0
100
AcDbEntity
  8
0
 62
     7
420
 16777215
370
    15
100
AcDbVertex
100
AcDb2dVertex
 10
118.9501725208838
 20
192.0434027297669
 30
0.0
  0
VERTEX
  5
4B2
330
4B0
100
AcDbEntity
  8
0
 62
     7
420
 16777215
370
    15
100
AcDbVertex
100
AcDb2dVertex
 10
118.9501725208838
 20
192.6933203617616
 30
0.0
  0
SEQEND
  5
4B3
330
4B0
100
AcDbEntity
  8
0
 62
     7
420
 16777215
370
    15
  0
POLYLINE
  5
4B4
330
1F
100
AcDbEntity
  8
0
 62
     7
420
 16777215
370
    15
100
AcDb2dPolyline
 66
     1
 10
0.0
 20
0.0
 30
0.0
  0
VERTEX
  5
4B5
330
4B4
100
AcDbEntity
  8
0
 62
     7
420
 16777215
370
    15
100
AcDbVertex
100
AcDb2dVertex
 10
118.3001089263572
 20
199.6632565728326
 30
0.0
  0
VERTEX
  5
4B6
330
4B4
100
AcDbEntity
  8
0
 62
     7
420
 16777215
370
    15
100
AcDbVertex
100
AcDb2dVertex
 10
118.2432411500303
 20
199.6632565728326
 30
0.0
  0
SEQEND
  5
4B7
330
4B4
100
AcDbEntity
  8
0
 62
     7
420
 16777215
370
    15
  0
POLYLINE
  5
4B8
330
1F
100
AcDbEntity
  8
0
 62
     7
420
 16777215
370
    15
100
AcDb2dPolyline
 66
     1
 10
0.0
 20
0.0
 30
0.0
  0
VERTEX
  5
4B9
330
4B8
100
AcDbEntity
  8
0
 62
     7
420
 16777215
370
    15
100
AcDbVertex
100
AcDb2dVertex
 10
118.2074342064993
 20
200.3133554451361
 30
0.0
  0
VERTEX
  5
4BA
330
4B8
100
AcDbEntity
  8
0
 62
     7
420
 16777215
370
    15
100
AcDbVertex
100
AcDb2dVertex
 10
118.3001089263572
 20
200.3133554451361
 30
0.0
  0
SEQEND
  5
4BB
330
4B8
100
AcDbEntity
  8
0
 62
     7
420
 16777215
370
    15
  0
POLYLINE
  5
4BC
330
1F
100
AcDbEntity
  8
0
 62
     7
420
 16777215
370
    15
100
AcDb2dPolyline
 66
     1
 10
0.0
 20
0.0
 30
0.0
  0
VERTEX
  5
4BD
330
4BC
100
AcDbEntity
  8
0
 62
     7
420
 16777215
370
    15
100
AcDbVertex
100
AcDb2dVertex
 10
118.3001089263572
 20
197.1233624709641
 30
0.0
  0
VERTEX
  5
4BE
330
4BC
100
AcDbEntity
  8
0
 62
     7
420
 16777215
370
    15
100
AcDbVertex
100
AcDb2dVertex
 10
118.2432411500303
 20
197.1233624709641
 30
0.0
  0
SEQEND
  5
4BF
330
4BC
100
AcDbEntity
  8
0
 62
     7
420
 16777215
370
    15
  0
POLYLINE
  5
4C0
330
1F
100
AcDbEntity
  8
0
 62
     7
420
 16777215
370
    15
100
AcDb2dPolyline
 66
     1
 10
0.0
 20
0.0
 30
0.0
  0
VERTEX
  5
4C1
330
4C0
100
AcDbEntity
  8
0
 62
     7
420
 16777215
370
    15
100
AcDbVertex
100
AcDb2dVertex
 10
118.3001089263572
 20
194.5832919802111
 30
0.0
  0
VERTEX
  5
4C2
330
4C0
100
AcDbEntity
  8
0
 62
     7
420
 16777215
370
    15
100
AcDbVertex
100
AcDb2dVertex
 10
118.2432411500303
 20
194.5832919802111
 30
0.0
  0
SEQEND
  5
4C3
330
4C0
100
AcDbEntity
  8
0
 62
     7
420
 16777215
370
    15
  0
POLYLINE
  5
4C4
330
1F
100
AcDbEntity
  8
0
 62
     7
420
 16777215
370
    15
100
AcDb2dPolyline
 66
     1
 10
0.0
 20
0.0
 30
0.0
  0
VERTEX
  5
4C5
330
4C4
100
AcDbEntity
  8
0
 62
     7
420
 16777215
370
    15
100
AcDbVertex
100
AcDb2dVertex
 10
118.2074342064993
 20
195.2333908525146
 30
0.0
  0
VERTEX
  5
4C6
330
4C4
100
AcDbEntity
  8
0
 62
     7
420
 16777215
370
    15
100
AcDbVertex
100
AcDb2dVertex
 10
118.3001089263572
 20
195.2333908525146
 30
0.0
  0
SEQEND
  5
4C7
330
4C4
100
AcDbEntity
  8
0
 62
     7
420
 16777215
370
    15
  0
POLYLINE
  5
4C8
330
1F
100
AcDbEntity
  8
0
 62
     7
420
 16777215
370
    15
100
AcDb2dPolyline
 66
     1
 10
0.0
 20
0.0
 30
0.0
  0
VERTEX
  5
4C9
330
4C8
100
AcDbEntity
  8
0
 62
     7
420
 16777215
370
    15
100
AcDbVertex
100
AcDb2dVertex
 10
118.3001089263572
 20
192.0434027297669
 30
0.0
  0
VERTEX
  5
4CA
330
4C8
100
AcDbEntity
  8
0
 62
     7
420
 16777215
370
    15
100
AcDbVertex
100
AcDb2dVertex
 10
118.2432411500303
 20
192.0434027297669
 30
0.0
  0
SEQEND
  5
4CB
330
4C8
100
AcDbEntity
  8
0
 62
     7
420
 16777215
370
    15
  0
POLYLINE
  5
4CC
330
1F
100
AcDbEntity
  8
0
 62
     7
420
 16777215
370
    15
100
AcDb2dPolyline
 66
     1
 10
0.0
 20
0.0
 30
0.0
  0
VERTEX
  5
4CD
330
4CC
100
AcDbEntity
  8
0
 62
     7
420
 16777215
370
    15
100
AcDbVertex
100
AcDb2dVertex
 10
118.2074342064993
 20
192.6933203617616
 30
0.0
  0
VERTEX
  5
4CE
330
4CC
100
AcDbEntity
  8
0
 62
     7
420
 16777215
370
    15
100
AcDbVertex
100
AcDb2dVertex
 10
118.3001089263572
 20
192.6933203617616
 30
0.0
  0
SEQEND
  5
4CF
330
4CC
100
AcDbEntity
  8
0
 62
     7
420
 16777215
370
    15
  0
SPLINE
  5
4D0
330
1F
100
AcDbEntity
  8
0
 62
     7
420
 16777215
370
    15
100
AcDbSpline
210
0.0
220
0.0
230
1.0
 70
    11
 71
     3
 72
    20
 73
    16
 74
     0
 42
0.0000000001
 43
0.0000000001
 12
1.0
 22
0.0
 32
0.0
 13
1.0
 23
0.0
 33
0.0
 40
0.0
 40
0.0
 40
0.0
 40
0.0
 40
1.0
 40
1.0
 40
1.0
 40
2.0
 40
2.0
 40
2.0
 40
3.0
 40
3.0
 40
3.0
 40
4.0
 40
4.0
 40
4.0
 40
5.0
 40
5.0
 40
5.0
 40
5.0
 10
119.1041952947322
 20
192.389296480629
 30
0.0
 10
119.1041952947322
 20
192.6654156402513
 30
0.0
 10
118.8802519671121
 20
192.889182578987
 30
0.0
 10
118.6043091963742
 20
192.889182578987
 30
0.0
 10
118.3280166370845
 20
192.889182578987
 30
0.0
 10
118.1040703202475
 20
192.6654156402513
 30
0.0
 10
118.1040703202475
 20
192.389296480629
 30
0.0
 10
118.1040703202475
 20
192.1130009321224
 30
0.0
 10
118.3280166370845
 20
191.8892388409166
 30
0.0
 10
118.6043091963742
 20
191.8892388409166
 30
0.0
 10
118.8802519671121
 20
191.8892388409166
 30
0.0
 10
119.1041952947322
 20
192.1130009321224
 30
0.0
 10
119.1041952947322
 20
192.389296480629
 30
0.0
 10
119.1041952947322
 20
192.389296480629
 30
0.0
 10
119.1041952947322
 20
192.389296480629
 30
0.0
 10
119.1041952947322
 20
192.389296480629
 30
0.0
  0
SPLINE
  5
4D1
330
1F
100
AcDbEntity
  8
0
 62
     7
420
 16777215
370
    15
100
AcDbSpline
210
0.0
220
0.0
230
1.0
 70
    11
 71
     3
 72
    20
 73
    16
 74
     0
 42
0.0000000001
 43
0.0000000001
 12
1.0
 22
0.0
 32
0.0
 13
1.0
 23
0.0
 33
0.0
 40
0.0
 40
0.0
 40
0.0
 40
0.0
 40
1.0
 40
1.0
 40
1.0
 40
2.0
 40
2.0
 40
2.0
 40
3.0
 40
3.0
 40
3.0
 40
4.0
 40
4.0
 40
4.0
 40
5.0
 40
5.0
 40
5.0
 40
5.0
 10
119.1041952947322
 20
197.4692610732505
 30
0.0
 10
119.1041952947322
 20
197.7453802328728
 30
0.0
 10
118.8802519671121
 20
197.9691471716085
 30
0.0
 10
118.6043091963742
 20
197.9691471716085
 30
0.0
 10
118.3280166370845
 20
197.9691471716085
 30
0.0
 10
118.1040703202475
 20
197.7453802328728
 30
0.0
 10
118.1040703202475
 20
197.4692610732505
 30
0.0
 10
118.1040703202475
 20
197.1931419136283
 30
0.0
 10
118.3280166370845
 20
196.9691985860082
 30
0.0
 10
118.6043091963742
 20
196.9691985860082
 30
0.0
 10
118.8802519671121
 20
196.9691985860082
 30
0.0
 10
119.1041952947322
 20
197.1931419136283
 30
0.0
 10
119.1041952947322
 20
197.4692610732505
 30
0.0
 10
119.1041952947322
 20
197.4692610732505
 30
0.0
 10
119.1041952947322
 20
197.4692610732505
 30
0.0
 10
119.1041952947322
 20
197.4692610732505
 30
0.0
  0
SPLINE
  5
4D2
330
1F
100
AcDbEntity
  8
0
 62
     7
420
 16777215
370
    15
100
AcDbSpline
210
0.0
220
0.0
230
1.0
 70
    11
 71
     3
 72
    20
 73
    16
 74
     0
 42
0.0000000001
 43
0.0000000001
 12
1.0
 22
0.0
 32
0.0
 13
1.0
 23
0.0
 33
0.0
 40
0.0
 40
0.0
 40
0.0
 40
0.0
 40
1.0
 40
1.0
 40
1.0
 40
2.0
 40
2.0
 40
2.0
 40
3.0
 40
3.0
 40
3.0
 40
4.0
 40
4.0
 40
4.0
 40
5.0
 40
5.0
 40
5.0
 40
5.0
 10
119.1041952947322
 20
200.0091551751191
 30
0.0
 10
119.1041952947322
 20
200.2852743347414
 30
0.0
 10
118.8802519671121
 20
200.5092176623615
 30
0.0
 10
118.6043091963742
 20
200.5092176623615
 30
0.0
 10
118.3280166370845
 20
200.5092176623615
 30
0.0
 10
118.1040703202475
 20
200.2852743347414
 30
0.0
 10
118.1040703202475
 20
200.0091551751191
 30
0.0
 10
118.1040703202475
 20
199.7330360154969
 30
0.0
 10
118.3280166370845
 20
199.5092690767612
 30
0.0
 10
118.6043091963742
 20
199.5092690767612
 30
0.0
 10
118.8802519671121
 20
199.5092690767612
 30
0.0
 10
119.1041952947322
 20
199.7330360154969
 30
0.0
 10
119.1041952947322
 20
200.0091551751191
 30
0.0
 10
119.1041952947322
 20
200.0091551751191
 30
0.0
 10
119.1041952947322
 20
200.0091551751191
 30
0.0
 10
119.1041952947322
 20
200.0091551751191
 30
0.0
  0
SPLINE
  5
4D3
330
1F
100
AcDbEntity
  8
0
 62
     7
420
 16777215
370
    15
100
AcDbSpline
210
0.0
220
0.0
230
1.0
 70
    11
 71
     3
 72
    20
 73
    16
 74
     0
 42
0.0000000001
 43
0.0000000001
 12
1.0
 22
0.0
 32
0.0
 13
1.0
 23
0.0
 33
0.0
 40
0.0
 40
0.0
 40
0.0
 40
0.0
 40
1.0
 40
1.0
 40
1.0
 40
2.0
 40
2.0
 40
2.0
 40
3.0
 40
3.0
 40
3.0
 40
4.0
 40
4.0
 40
4.0
 40
5.0
 40
5.0
 40
5.0
 40
5.0
 10
119.1041952947322
 20
194.9291905824976
 30
0.0
 10
119.1041952947322
 20
195.2053097421199
 30
0.0
 10
118.8802519671121
 20
195.4292530697399
 30
0.0
 10
118.6043091963742
 20
195.4292530697399
 30
0.0
 10
118.3280166370845
 20
195.4292530697399
 30
0.0
 10
118.1040703202475
 20
195.2053097421199
 30
0.0
 10
118.1040703202475
 20
194.9291905824976
 30
0.0
 10
118.1040703202475
 20
194.6530714228753
 30
0.0
 10
118.3280166370845
 20
194.4291280952553
 30
0.0
 10
118.6043091963742
 20
194.4291280952553
 30
0.0
 10
118.8802519671121
 20
194.4291280952553
 30
0.0
 10
119.1041952947322
 20
194.6530714228753
 30
0.0
 10
119.1041952947322
 20
194.9291905824976
 30
0.0
 10
119.1041952947322
 20
194.9291905824976
 30
0.0
 10
119.1041952947322
 20
194.9291905824976
 30
0.0
 10
119.1041952947322
 20
194.9291905824976
 30
0.0
  0
SPLINE
  5
4D4
330
1F
100
AcDbEntity
  8
0
 62
     7
420
 16777215
370
    25
100
AcDbSpline
210
0.0
220
0.0
230
1.0
 70
    11
 71
     3
 72
    20
 73
    16
 74
     0
 42
0.0000000001
 43
0.0000000001
 12
1.0
 22
0.0
 32
0.0
 13
1.0
 23
0.0
 33
0.0
 40
0.0
 40
0.0
 40
0.0
 40
0.0
 40
1.0
 40
1.0
 40
1.0
 40
2.0
 40
2.0
 40
2.0
 40
3.0
 40
3.0
 40
3.0
 40
4.0
 40
4.0
 40
4.0
 40
5.0
 40
5.0
 40
5.0
 40
5.0
 10
218.6043943897931
 20
196.1992258278741
 30
0.0
 10
218.6043943897931
 20
197.3037024663632
 30
0.0
 10
217.7086916122396
 20
198.1992641101822
 30
0.0
 10
216.6041741961893
 20
198.1992641101822
 30
0.0
 10
215.4996622799234
 20
198.1992641101822
 30
0.0
 10
214.6042770249888
 20
197.3037024663632
 30
0.0
 10
214.6042770249888
 20
196.1992258278741
 30
0.0
 10
214.6042770249888
 20
195.0947139116081
 30
0.0
 10
215.4996622799234
 20
194.1991522677891
 30
0.0
 10
216.6041741961893
 20
194.1991522677891
 30
0.0
 10
217.7086916122396
 20
194.1991522677891
 30
0.0
 10
218.6043943897931
 20
195.0947139116081
 30
0.0
 10
218.6043943897931
 20
196.1992258278741
 30
0.0
 10
218.6043943897931
 20
196.1992258278741
 30
0.0
 10
218.6043943897931
 20
196.1992258278741
 30
0.0
 10
218.6043943897931
 20
196.1992258278741
 30
0.0
  0
POLYLINE
  5
4D5
330
1F
100
AcDbEntity
  8
0
 62
     7
420
 16777215
370
    25
100
AcDb2dPolyline
 66
     1
 10
0.0
 20
0.0
 30
0.0
  0
VERTEX
  5
4D6
330
4D5
100
AcDbEntity
  8
0
 62
     7
420
 16777215
370
    25
100
AcDbVertex
100
AcDb2dVertex
 10
0.1042140833071809
 20
193.6991250583236
 30
0.0
  0
VERTEX
  5
4D7
330
4D5
100
AcDbEntity
  8
0
 62
     7
420
 16777215
370
    25
100
AcDbVertex
100
AcDb2dVertex
 10
0.1042140833071809
 20
198.6991502085401
 30
0.0
  0
VERTEX
  5
4D8
330
4D5
100
AcDbEntity
  8
0
 62
     7
420
 16777215
370
    25
100
AcDbVertex
100
AcDb2dVertex
 10
-4.395752221123262
 20
198.6991502085401
 30
0.0
  0
VERTEX
  5
4D9
330
4D5
100
AcDbEntity
  8
0
 62
     7
420
 16777215
370
    25
100
AcDbVertex
100
AcDb2dVertex
 10
-4.395752221123262
 20
193.6991250583236
 30
0.0
  0
VERTEX
  5
4DA
330
4D5
100
AcDbEntity
  8
0
 62
     7
420
 16777215
370
    25
100
AcDbVertex
100
AcDb2dVertex
 10
0.1042140833071809
 20
193.6991250583236
 30
0.0
  0
SEQEND
  5
4DB
330
4D5
100
AcDbEntity
  8
0
 62
     7
420
 16777215
370
    25
  0
SPLINE
  5
4DC
330
1F
100
AcDbEntity
  8
0
 62
     7
420
 16777215
370
    25
100
AcDbSpline
210
0.0
220
0.0
230
1.0
 70
    11
 71
     3
 72
    29
 73
    25
 74
     0
 42
0.0000000001
 43
0.0000000001
 12
1.0
 22
0.0
 32
0.0
 13
1.0
 23
0.0
 33
0.0
 40
0.0
 40
0.0
 40
0.0
 40
0.0
 40
1.0
 40
1.0
 40
1.0
 40
2.0
 40
2.0
 40
2.0
 40
3.0
 40
3.0
 40
3.0
 40
4.0
 40
4.0
 40
4.0
 40
5.0
 40
5.0
 40
5.0
 40
6.0
 40
6.0
 40
6.0
 40
7.0
 40
7.0
 40
7.0
 40
8.0
 40
8.0
 40
8.0
 40
8.0
 10
10.90443166394065
 20
194.4490953169681
 30
0.0
 10
10.90443166394065
 20
194.4490953169681
 30
0.0
 10
9.80404721977127
 20
194.4490953169681
 30
0.0
 10
9.80404721977127
 20
194.4490953169681
 30
0.0
 10
9.141565831047856
 20
194.4490953169681
 30
0.0
 10
8.604461664515453
 20
194.9865522477008
 30
0.0
 10
8.604461664515453
 20
195.6492100085728
 30
0.0
 10
8.604461664515453
 20
195.6492100085728
 30
0.0
 10
8.604461664515453
 20
196.7492416471753
 30
0.0
 10
8.604461664515453
 20
196.7492416471753
 30
0.0
 10
8.604461664515453
 20
197.4118994080473
 30
0.0
 10
9.141565831047856
 20
197.9491446721188
 30
0.0
 10
9.80404721977127
 20
197.9491446721188
 30
0.0
 10
9.80404721977127
 20
197.9491446721188
 30
0.0
 10
10.90443166394065
 20
197.9491446721188
 30
0.0
 10
10.90443166394065
 20
197.9491446721188
 30
0.0
 10
11.56691305266374
 20
197.9491446721188
 30
0.0
 10
12.10398194141831
 20
197.4118994080473
 30
0.0
 10
12.10398194141831
 20
196.7492416471753
 30
0.0
 10
12.10398194141831
 20
196.7492416471753
 30
0.0
 10
12.10398194141831
 20
195.6492100085728
 30
0.0
 10
12.10398194141831
 20
195.6492100085728
 30
0.0
 10
12.10398194141831
 20
194.9865522477008
 30
0.0
 10
11.56691305266374
 20
194.4490953169681
 30
0.0
 10
10.90443166394065
 20
194.4490953169681
 30
0.0
  0
POLYLINE
  5
4DD
330
1F
100
AcDbEntity
  8
0
 62
     7
420
 16777215
370
    25
100
AcDb2dPolyline
 66
     1
 10
0.0
 20
0.0
 30
0.0
  0
VERTEX
  5
4DE
330
4DD
100
AcDbEntity
  8
0
 62
     7
420
 16777215
370
    25
100
AcDbVertex
100
AcDb2dVertex
 10
12.60422083018234
 20
193.6991250583236
 30
0.0
  0
VERTEX
  5
4DF
330
4DD
100
AcDbEntity
  8
0
 62
     7
420
 16777215
370
    25
100
AcDbVertex
100
AcDb2dVertex
 10
12.60422083018234
 20
198.6991502085401
 30
0.0
  0
VERTEX
  5
4E0
330
4DD
100
AcDbEntity
  8
0
 62
     7
420
 16777215
370
    25
100
AcDbVertex
100
AcDb2dVertex
 10
8.104258053529582
 20
198.6991502085401
 30
0.0
  0
VERTEX
  5
4E1
330
4DD
100
AcDbEntity
  8
0
 62
     7
420
 16777215
370
    25
100
AcDbVertex
100
AcDb2dVertex
 10
8.104258053529582
 20
193.6991250583236
 30
0.0
  0
VERTEX
  5
4E2
330
4DD
100
AcDbEntity
  8
0
 62
     7
420
 16777215
370
    25
100
AcDbVertex
100
AcDb2dVertex
 10
12.60422083018234
 20
193.6991250583236
 30
0.0
  0
SEQEND
  5
4E3
330
4DD
100
AcDbEntity
  8
0
 62
     7
420
 16777215
370
    25
  0
SPLINE
  5
4E4
330
1F
100
AcDbEntity
  8
0
 62
     7
420
 16777215
370
    25
100
AcDbSpline
210
0.0
220
0.0
230
1.0
 70
    11
 71
     3
 72
    29
 73
    25
 74
     0
 42
0.0000000001
 43
0.0000000001
 12
1.0
 22
0.0
 32
0.0
 13
1.0
 23
0.0
 33
0.0
 40
0.0
 40
0.0
 40
0.0
 40
0.0
 40
1.0
 40
1.0
 40
1.0
 40
2.0
 40
2.0
 40
2.0
 40
3.0
 40
3.0
 40
3.0
 40
4.0
 40
4.0
 40
4.0
 40
5.0
 40
5.0
 40
5.0
 40
6.0
 40
6.0
 40
6.0
 40
7.0
 40
7.0
 40
7.0
 40
8.0
 40
8.0
 40
8.0
 40
8.0
 10
23.40426554970461
 20
194.4490953169681
 30
0.0
 10
23.40426554970461
 20
194.4490953169681
 30
0.0
 10
22.30423388331267
 20
194.4490953169681
 30
0.0
 10
22.30423388331267
 20
194.4490953169681
 30
0.0
 10
21.64139971681182
 20
194.4490953169681
 30
0.0
 10
21.10429555027942
 20
194.9865522477008
 30
0.0
 10
21.10429555027942
 20
195.6492100085728
 30
0.0
 10
21.10429555027942
 20
195.6492100085728
 30
0.0
 10
21.10429555027942
 20
196.7492416471753
 30
0.0
 10
21.10429555027942
 20
196.7492416471753
 30
0.0
 10
21.10429555027942
 20
197.4118994080473
 30
0.0
 10
21.64139971681182
 20
197.9491446721188
 30
0.0
 10
22.30423388331267
 20
197.9491446721188
 30
0.0
 10
22.30423388331267
 20
197.9491446721188
 30
0.0
 10
23.40426554970461
 20
197.9491446721188
 30
0.0
 10
23.40426554970461
 20
197.9491446721188
 30
0.0
 10
24.06674693842771
 20
197.9491446721188
 30
0.0
 10
24.60416860496003
 20
197.4118994080473
 30
0.0
 10
24.60416860496003
 20
196.7492416471753
 30
0.0
 10
24.60416860496003
 20
196.7492416471753
 30
0.0
 10
24.60416860496003
 20
195.6492100085728
 30
0.0
 10
24.60416860496003
 20
195.6492100085728
 30
0.0
 10
24.60416860496003
 20
194.9865522477008
 30
0.0
 10
24.06674693842771
 20
194.4490953169681
 30
0.0
 10
23.40426554970461
 20
194.4490953169681
 30
0.0
  0
POLYLINE
  5
4E5
330
1F
100
AcDbEntity
  8
0
 62
     7
420
 16777215
370
    25
100
AcDb2dPolyline
 66
     1
 10
0.0
 20
0.0
 30
0.0
  0
VERTEX
  5
4E6
330
4E5
100
AcDbEntity
  8
0
 62
     7
420
 16777215
370
    25
100
AcDbVertex
100
AcDb2dVertex
 10
25.10440749372374
 20
193.6991250583236
 30
0.0
  0
VERTEX
  5
4E7
330
4E5
100
AcDbEntity
  8
0
 62
     7
420
 16777215
370
    25
100
AcDbVertex
100
AcDb2dVertex
 10
25.10440749372374
 20
198.6991502085401
 30
0.0
  0
VERTEX
  5
4E8
330
4E5
100
AcDbEntity
  8
0
 62
     7
420
 16777215
370
    25
100
AcDbVertex
100
AcDb2dVertex
 10
20.60444471707099
 20
198.6991502085401
 30
0.0
  0
VERTEX
  5
4E9
330
4E5
100
AcDbEntity
  8
0
 62
     7
420
 16777215
370
    25
100
AcDbVertex
100
AcDb2dVertex
 10
20.60444471707099
 20
193.6991250583236
 30
0.0
  0
VERTEX
  5
4EA
330
4E5
100
AcDbEntity
  8
0
 62
     7
420
 16777215
370
    25
100
AcDbVertex
100
AcDb2dVertex
 10
25.10440749372374
 20
193.6991250583236
 30
0.0
  0
SEQEND
  5
4EB
330
4E5
100
AcDbEntity
  8
0
 62
     7
420
 16777215
370
    25
  0
SPLINE
  5
4EC
330
1F
100
AcDbEntity
  8
0
 62
     7
420
 16777215
370
    25
100
AcDbSpline
210
0.0
220
0.0
230
1.0
 70
    11
 71
     3
 72
    29
 73
    25
 74
     0
 42
0.0000000001
 43
0.0000000001
 12
1.0
 22
0.0
 32
0.0
 13
1.0
 23
0.0
 33
0.0
 40
0.0
 40
0.0
 40
0.0
 40
0.0
 40
1.0
 40
1.0
 40
1.0
 40
2.0
 40
2.0
 40
2.0
 40
3.0
 40
3.0
 40
3.0
 40
4.0
 40
4.0
 40
4.0
 40
5.0
 40
5.0
 40
5.0
 40
6.0
 40
6.0
 40
6.0
 40
7.0
 40
7.0
 40
7.0
 40
8.0
 40
8.0
 40
8.0
 40
8.0
 10
35.90409852845458
 20
194.4490953169681
 30
0.0
 10
35.90409852845458
 20
194.4490953169681
 30
0.0
 10
34.8044205468544
 20
194.4490953169681
 30
0.0
 10
34.8044205468544
 20
194.4490953169681
 30
0.0
 10
34.14158638035354
 20
194.4490953169681
 30
0.0
 10
33.60416471382122
 20
194.9865522477008
 30
0.0
 10
33.60416471382122
 20
195.6492100085728
 30
0.0
 10
33.60416471382122
 20
195.6492100085728
 30
0.0
 10
33.60416471382122
 20
196.7492416471753
 30
0.0
 10
33.60416471382122
 20
196.7492416471753
 30
0.0
 10
33.60416471382122
 20
197.4118994080473
 30
0.0
 10
34.14158638035354
 20
197.9491446721188
 30
0.0
 10
34.8044205468544
 20
197.9491446721188
 30
0.0
 10
34.8044205468544
 20
197.9491446721188
 30
0.0
 10
35.90409852845458
 20
197.9491446721188
 30
0.0
 10
35.90409852845458
 20
197.9491446721188
 30
0.0
 10
36.56693267821094
 20
197.9491446721188
 30
0.0
 10
37.10435433116684
 20
197.4118994080473
 30
0.0
 10
37.10435433116684
 20
196.7492416471753
 30
0.0
 10
37.10435433116684
 20
196.7492416471753
 30
0.0
 10
37.10435433116684
 20
195.6492100085728
 30
0.0
 10
37.10435433116684
 20
195.6492100085728
 30
0.0
 10
37.10435433116684
 20
194.9865522477008
 30
0.0
 10
36.56693267821094
 20
194.4490953169681
 30
0.0
 10
35.90409852845458
 20
194.4490953169681
 30
0.0
  0
POLYLINE
  5
4ED
330
1F
100
AcDbEntity
  8
0
 62
     7
420
 16777215
370
    25
100
AcDb2dPolyline
 66
     1
 10
0.0
 20
0.0
 30
0.0
  0
VERTEX
  5
4EE
330
4ED
100
AcDbEntity
  8
0
 62
     7
420
 16777215
370
    25
100
AcDbVertex
100
AcDb2dVertex
 10
37.60424042952479
 20
193.6991250583236
 30
0.0
  0
VERTEX
  5
4EF
330
4ED
100
AcDbEntity
  8
0
 62
     7
420
 16777215
370
    25
100
AcDbVertex
100
AcDb2dVertex
 10
37.60424042952479
 20
198.6991502085401
 30
0.0
  0
VERTEX
  5
4F0
330
4ED
100
AcDbEntity
  8
0
 62
     7
420
 16777215
370
    25
100
AcDbVertex
100
AcDb2dVertex
 10
33.10427860283495
 20
198.6991502085401
 30
0.0
  0
VERTEX
  5
4F1
330
4ED
100
AcDbEntity
  8
0
 62
     7
420
 16777215
370
    25
100
AcDbVertex
100
AcDb2dVertex
 10
33.10427860283495
 20
193.6991250583236
 30
0.0
  0
VERTEX
  5
4F2
330
4ED
100
AcDbEntity
  8
0
 62
     7
420
 16777215
370
    25
100
AcDbVertex
100
AcDb2dVertex
 10
37.60424042952479
 20
193.6991250583236
 30
0.0
  0
SEQEND
  5
4F3
330
4ED
100
AcDbEntity
  8
0
 62
     7
420
 16777215
370
    25
  0
SPLINE
  5
4F4
330
1F
100
AcDbEntity
  8
0
 62
     7
420
 16777215
370
    25
100
AcDbSpline
210
0.0
220
0.0
230
1.0
 70
    11
 71
     3
 72
    29
 73
    25
 74
     0
 42
0.0000000001
 43
0.0000000001
 12
1.0
 22
0.0
 32
0.0
 13
1.0
 23
0.0
 33
0.0
 40
0.0
 40
0.0
 40
0.0
 40
0.0
 40
1.0
 40
1.0
 40
1.0
 40
2.0
 40
2.0
 40
2.0
 40
3.0
 40
3.0
 40
3.0
 40
4.0
 40
4.0
 40
4.0
 40
5.0
 40
5.0
 40
5.0
 40
6.0
 40
6.0
 40
6.0
 40
7.0
 40
7.0
 40
7.0
 40
8.0
 40
8.0
 40
8.0
 40
8.0
 10
48.40428609900998
 20
194.4490953169681
 30
0.0
 10
48.40428609900998
 20
194.4490953169681
 30
0.0
 10
47.3042532376124
 20
194.4490953169681
 30
0.0
 10
47.3042532376124
 20
194.4490953169681
 30
0.0
 10
46.64141908785604
 20
194.4490953169681
 30
0.0
 10
46.10435021266893
 20
194.9865522477008
 30
0.0
 10
46.10435021266893
 20
195.6492100085728
 30
0.0
 10
46.10435021266893
 20
195.6492100085728
 30
0.0
 10
46.10435021266893
 20
196.7492416471753
 30
0.0
 10
46.10435021266893
 20
196.7492416471753
 30
0.0
 10
46.10435021266893
 20
197.4118994080473
 30
0.0
 10
46.64141908785604
 20
197.9491446721188
 30
0.0
 10
47.3042532376124
 20
197.9491446721188
 30
0.0
 10
47.3042532376124
 20
197.9491446721188
 30
0.0
 10
48.40428609900998
 20
197.9491446721188
 30
0.0
 10
48.40428609900998
 20
197.9491446721188
 30
0.0
 10
49.06711902597128
 20
197.9491446721188
 30
0.0
 10
49.60422317893528
 20
197.4118994080473
 30
0.0
 10
49.60422317893528
 20
196.7492416471753
 30
0.0
 10
49.60422317893528
 20
196.7492416471753
 30
0.0
 10
49.60422317893528
 20
195.6492100085728
 30
0.0
 10
49.60422317893528
 20
195.6492100085728
 30
0.0
 10
49.60422317893528
 20
194.9865522477008
 30
0.0
 10
49.06711902597128
 20
194.4490953169681
 30
0.0
 10
48.40428609900998
 20
194.4490953169681
 30
0.0
  0
POLYLINE
  5
4F5
330
1F
100
AcDbEntity
  8
0
 62
     7
420
 16777215
370
    25
100
AcDb2dPolyline
 66
     1
 10
0.0
 20
0.0
 30
0.0
  0
VERTEX
  5
4F6
330
4F5
100
AcDbEntity
  8
0
 62
     7
420
 16777215
370
    25
100
AcDbVertex
100
AcDb2dVertex
 10
50.10407399951636
 20
193.6991250583236
 30
0.0
  0
VERTEX
  5
4F7
330
4F5
100
AcDbEntity
  8
0
 62
     7
420
 16777215
370
    25
100
AcDbVertex
100
AcDb2dVertex
 10
50.10407399951636
 20
198.6991502085401
 30
0.0
  0
VERTEX
  5
4F8
330
4F5
100
AcDbEntity
  8
0
 62
     7
420
 16777215
370
    25
100
AcDbVertex
100
AcDb2dVertex
 10
45.60411133654219
 20
198.6991502085401
 30
0.0
  0
VERTEX
  5
4F9
330
4F5
100
AcDbEntity
  8
0
 62
     7
420
 16777215
370
    25
100
AcDbVertex
100
AcDb2dVertex
 10
45.60411133654219
 20
193.6991250583236
 30
0.0
  0
VERTEX
  5
4FA
330
4F5
100
AcDbEntity
  8
0
 62
     7
420
 16777215
370
    25
100
AcDbVertex
100
AcDb2dVertex
 10
50.10407399951636
 20
193.6991250583236
 30
0.0
  0
SEQEND
  5
4FB
330
4F5
100
AcDbEntity
  8
0
 62
     7
420
 16777215
370
    25
  0
SPLINE
  5
4FC
330
1F
100
AcDbEntity
  8
0
 62
     7
420
 16777215
370
    25
100
AcDbSpline
210
0.0
220
0.0
230
1.0
 70
    11
 71
     3
 72
    29
 73
    25
 74
     0
 42
0.0000000001
 43
0.0000000001
 12
1.0
 22
0.0
 32
0.0
 13
1.0
 23
0.0
 33
0.0
 40
0.0
 40
0.0
 40
0.0
 40
0.0
 40
1.0
 40
1.0
 40
1.0
 40
2.0
 40
2.0
 40
2.0
 40
3.0
 40
3.0
 40
3.0
 40
4.0
 40
4.0
 40
4.0
 40
5.0
 40
5.0
 40
5.0
 40
6.0
 40
6.0
 40
6.0
 40
7.0
 40
7.0
 40
7.0
 40
8.0
 40
8.0
 40
8.0
 40
8.0
 10
60.90447122397527
 20
194.4490953169681
 30
0.0
 10
60.90447122397527
 20
194.4490953169681
 30
0.0
 10
59.80408680760397
 20
194.4490953169681
 30
0.0
 10
59.80408680760397
 20
194.4490953169681
 30
0.0
 10
59.14125265784761
 20
194.4490953169681
 30
0.0
 10
58.60418378266049
 20
194.9865522477008
 30
0.0
 10
58.60418378266049
 20
195.6492100085728
 30
0.0
 10
58.60418378266049
 20
195.6492100085728
 30
0.0
 10
58.60418378266049
 20
196.7492416471753
 30
0.0
 10
58.60418378266049
 20
196.7492416471753
 30
0.0
 10
58.60418378266049
 20
197.4118994080473
 30
0.0
 10
59.14125265784761
 20
197.9491446721188
 30
0.0
 10
59.80408680760397
 20
197.9491446721188
 30
0.0
 10
59.80408680760397
 20
197.9491446721188
 30
0.0
 10
60.90447122397527
 20
197.9491446721188
 30
0.0
 10
60.90447122397527
 20
197.9491446721188
 30
0.0
 10
61.56695259596285
 20
197.9491446721188
 30
0.0
 10
62.1040583178072
 20
197.4118994080473
 30
0.0
 10
62.1040583178072
 20
196.7492416471753
 30
0.0
 10
62.1040583178072
 20
196.7492416471753
 30
0.0
 10
62.1040583178072
 20
195.6492100085728
 30
0.0
 10
62.1040583178072
 20
195.6492100085728
 30
0.0
 10
62.1040583178072
 20
194.9865522477008
 30
0.0
 10
61.56695259596285
 20
194.4490953169681
 30
0.0
 10
60.90447122397527
 20
194.4490953169681
 30
0.0
  0
POLYLINE
  5
4FD
330
1F
100
AcDbEntity
  8
0
 62
     7
420
 16777215
370
    25
100
AcDb2dPolyline
 66
     1
 10
0.0
 20
0.0
 30
0.0
  0
VERTEX
  5
4FE
330
4FD
100
AcDbEntity
  8
0
 62
     7
420
 16777215
370
    25
100
AcDbVertex
100
AcDb2dVertex
 10
62.6042603472767
 20
193.6991250583236
 30
0.0
  0
VERTEX
  5
4FF
330
4FD
100
AcDbEntity
  8
0
 62
     7
420
 16777215
370
    25
100
AcDbVertex
100
AcDb2dVertex
 10
62.6042603472767
 20
198.6991502085401
 30
0.0
  0
VERTEX
  5
500
330
4FD
100
AcDbEntity
  8
0
 62
     7
420
 16777215
370
    25
100
AcDbVertex
100
AcDb2dVertex
 10
58.10429768430254
 20
198.6991502085401
 30
0.0
  0
VERTEX
  5
501
330
4FD
100
AcDbEntity
  8
0
 62
     7
420
 16777215
370
    25
100
AcDbVertex
100
AcDb2dVertex
 10
58.10429768430254
 20
193.6991250583236
 30
0.0
  0
VERTEX
  5
502
330
4FD
100
AcDbEntity
  8
0
 62
     7
420
 16777215
370
    25
100
AcDbVertex
100
AcDb2dVertex
 10
62.6042603472767
 20
193.6991250583236
 30
0.0
  0
SEQEND
  5
503
330
4FD
100
AcDbEntity
  8
0
 62
     7
420
 16777215
370
    25
  0
SPLINE
  5
504
330
1F
100
AcDbEntity
  8
0
 62
     7
420
 16777215
370
    25
100
AcDbSpline
210
0.0
220
0.0
230
1.0
 70
    11
 71
     3
 72
    29
 73
    25
 74
     0
 42
0.0000000001
 43
0.0000000001
 12
1.0
 22
0.0
 32
0.0
 13
1.0
 23
0.0
 33
0.0
 40
0.0
 40
0.0
 40
0.0
 40
0.0
 40
1.0
 40
1.0
 40
1.0
 40
2.0
 40
2.0
 40
2.0
 40
3.0
 40
3.0
 40
3.0
 40
4.0
 40
4.0
 40
4.0
 40
5.0
 40
5.0
 40
5.0
 40
6.0
 40
6.0
 40
6.0
 40
7.0
 40
7.0
 40
7.0
 40
8.0
 40
8.0
 40
8.0
 40
8.0
 10
73.40430479396683
 20
194.4490953169681
 30
0.0
 10
73.40430479396683
 20
194.4490953169681
 30
0.0
 10
72.30427498192405
 20
194.4490953169681
 30
0.0
 10
72.30427498192405
 20
194.4490953169681
 30
0.0
 10
71.64143900560795
 20
194.4490953169681
 30
0.0
 10
71.10401735265205
 20
194.9865522477008
 30
0.0
 10
71.10401735265205
 20
195.6492100085728
 30
0.0
 10
71.10401735265205
 20
195.6492100085728
 30
0.0
 10
71.10401735265205
 20
196.7492416471753
 30
0.0
 10
71.10401735265205
 20
196.7492416471753
 30
0.0
 10
71.10401735265205
 20
197.4118994080473
 30
0.0
 10
71.64143900560795
 20
197.9491446721188
 30
0.0
 10
72.30427498192405
 20
197.9491446721188
 30
0.0
 10
72.30427498192405
 20
197.9491446721188
 30
0.0
 10
73.40430479396683
 20
197.9491446721188
 30
0.0
 10
73.40430479396683
 20
197.9491446721188
 30
0.0
 10
74.06678616595441
 20
197.9491446721188
 30
0.0
 10
74.6042430966872
 20
197.4118994080473
 30
0.0
 10
74.6042430966872
 20
196.7492416471753
 30
0.0
 10
74.6042430966872
 20
196.7492416471753
 30
0.0
 10
74.6042430966872
 20
195.6492100085728
 30
0.0
 10
74.6042430966872
 20
195.6492100085728
 30
0.0
 10
74.6042430966872
 20
194.9865522477008
 30
0.0
 10
74.06678616595441
 20
194.4490953169681
 30
0.0
 10
73.40430479396683
 20
194.4490953169681
 30
0.0
  0
POLYLINE
  5
505
330
1F
100
AcDbEntity
  8
0
 62
     7
420
 16777215
370
    25
100
AcDb2dPolyline
 66
     1
 10
0.0
 20
0.0
 30
0.0
  0
VERTEX
  5
506
330
505
100
AcDbEntity
  8
0
 62
     7
420
 16777215
370
    25
100
AcDbVertex
100
AcDb2dVertex
 10
75.10444669503704
 20
193.6991250583236
 30
0.0
  0
VERTEX
  5
507
330
505
100
AcDbEntity
  8
0
 62
     7
420
 16777215
370
    25
100
AcDbVertex
100
AcDb2dVertex
 10
75.10444669503704
 20
198.6991502085401
 30
0.0
  0
VERTEX
  5
508
330
505
100
AcDbEntity
  8
0
 62
     7
420
 16777215
370
    25
100
AcDbVertex
100
AcDb2dVertex
 10
70.60448403206289
 20
198.6991502085401
 30
0.0
  0
VERTEX
  5
509
330
505
100
AcDbEntity
  8
0
 62
     7
420
 16777215
370
    25
100
AcDbVertex
100
AcDb2dVertex
 10
70.60448403206289
 20
193.6991250583236
 30
0.0
  0
VERTEX
  5
50A
330
505
100
AcDbEntity
  8
0
 62
     7
420
 16777215
370
    25
100
AcDbVertex
100
AcDb2dVertex
 10
75.10444669503704
 20
193.6991250583236
 30
0.0
  0
SEQEND
  5
50B
330
505
100
AcDbEntity
  8
0
 62
     7
420
 16777215
370
    25
  0
SPLINE
  5
50C
330
1F
100
AcDbEntity
  8
0
 62
     7
420
 16777215
370
    25
100
AcDbSpline
210
0.0
220
0.0
230
1.0
 70
    11
 71
     3
 72
    29
 73
    25
 74
     0
 42
0.0000000001
 43
0.0000000001
 12
1.0
 22
0.0
 32
0.0
 13
1.0
 23
0.0
 33
0.0
 40
0.0
 40
0.0
 40
0.0
 40
0.0
 40
1.0
 40
1.0
 40
1.0
 40
2.0
 40
2.0
 40
2.0
 40
3.0
 40
3.0
 40
3.0
 40
4.0
 40
4.0
 40
4.0
 40
5.0
 40
5.0
 40
5.0
 40
6.0
 40
6.0
 40
6.0
 40
7.0
 40
7.0
 40
7.0
 40
8.0
 40
8.0
 40
8.0
 40
8.0
 10
85.9041383639584
 20
194.4490953169681
 30
0.0
 10
85.9041383639584
 20
194.4490953169681
 30
0.0
 10
84.80445950312466
 20
194.4490953169681
 30
0.0
 10
84.80445950312466
 20
194.4490953169681
 30
0.0
 10
84.1416253533683
 20
194.4490953169681
 30
0.0
 10
83.6042037004124
 20
194.9865522477008
 30
0.0
 10
83.6042037004124
 20
195.6492100085728
 30
0.0
 10
83.6042037004124
 20
195.6492100085728
 30
0.0
 10
83.6042037004124
 20
196.7492416471753
 30
0.0
 10
83.6042037004124
 20
196.7492416471753
 30
0.0
 10
83.6042037004124
 20
197.4118994080473
 30
0.0
 10
84.1416253533683
 20
197.9491446721188
 30
0.0
 10
84.80445950312466
 20
197.9491446721188
 30
0.0
 10
84.80445950312466
 20
197.9491446721188
 30
0.0
 10
85.9041383639584
 20
197.9491446721188
 30
0.0
 10
85.9041383639584
 20
197.9491446721188
 30
0.0
 10
86.56697251371476
 20
197.9491446721188
 30
0.0
 10
87.10442944444753
 20
197.4118994080473
 30
0.0
 10
87.10442944444753
 20
196.7492416471753
 30
0.0
 10
87.10442944444753
 20
196.7492416471753
 30
0.0
 10
87.10442944444753
 20
195.6492100085728
 30
0.0
 10
87.10442944444753
 20
195.6492100085728
 30
0.0
 10
87.10442944444753
 20
194.9865522477008
 30
0.0
 10
86.56697251371476
 20
194.4490953169681
 30
0.0
 10
85.9041383639584
 20
194.4490953169681
 30
0.0
  0
POLYLINE
  5
50D
330
1F
100
AcDbEntity
  8
0
 62
     7
420
 16777215
370
    25
100
AcDb2dPolyline
 66
     1
 10
0.0
 20
0.0
 30
0.0
  0
VERTEX
  5
50E
330
50D
100
AcDbEntity
  8
0
 62
     7
420
 16777215
370
    25
100
AcDbVertex
100
AcDb2dVertex
 10
87.6042802650286
 20
193.6991250583236
 30
0.0
  0
VERTEX
  5
50F
330
50D
100
AcDbEntity
  8
0
 62
     7
420
 16777215
370
    25
100
AcDbVertex
100
AcDb2dVertex
 10
87.6042802650286
 20
198.6991502085401
 30
0.0
  0
VERTEX
  5
510
330
50D
100
AcDbEntity
  8
0
 62
     7
420
 16777215
370
    25
100
AcDbVertex
100
AcDb2dVertex
 10
83.10396482428567
 20
198.6991502085401
 30
0.0
  0
VERTEX
  5
511
330
50D
100
AcDbEntity
  8
0
 62
     7
420
 16777215
370
    25
100
AcDbVertex
100
AcDb2dVertex
 10
83.10396482428567
 20
193.6991250583236
 30
0.0
  0
VERTEX
  5
512
330
50D
100
AcDbEntity
  8
0
 62
     7
420
 16777215
370
    25
100
AcDbVertex
100
AcDb2dVertex
 10
87.6042802650286
 20
193.6991250583236
 30
0.0
  0
SEQEND
  5
513
330
50D
100
AcDbEntity
  8
0
 62
     7
420
 16777215
370
    25
  0
SPLINE
  5
514
330
1F
100
AcDbEntity
  8
0
 62
     7
420
 16777215
370
    25
100
AcDbSpline
210
0.0
220
0.0
230
1.0
 70
    11
 71
     3
 72
    29
 73
    25
 74
     0
 42
0.0000000001
 43
0.0000000001
 12
1.0
 22
0.0
 32
0.0
 13
1.0
 23
0.0
 33
0.0
 40
0.0
 40
0.0
 40
0.0
 40
0.0
 40
1.0
 40
1.0
 40
1.0
 40
2.0
 40
2.0
 40
2.0
 40
3.0
 40
3.0
 40
3.0
 40
4.0
 40
4.0
 40
4.0
 40
5.0
 40
5.0
 40
5.0
 40
6.0
 40
6.0
 40
6.0
 40
7.0
 40
7.0
 40
7.0
 40
8.0
 40
8.0
 40
8.0
 40
8.0
 10
98.40432471171874
 20
194.4490953169681
 30
0.0
 10
98.40432471171874
 20
194.4490953169681
 30
0.0
 10
97.30429307311623
 20
194.4490953169681
 30
0.0
 10
97.30429307311623
 20
194.4490953169681
 30
0.0
 10
96.64145892335986
 20
194.4490953169681
 30
0.0
 10
96.10439004817275
 20
194.9865522477008
 30
0.0
 10
96.10439004817275
 20
195.6492100085728
 30
0.0
 10
96.10439004817275
 20
195.6492100085728
 30
0.0
 10
96.10439004817275
 20
196.7492416471753
 30
0.0
 10
96.10439004817275
 20
196.7492416471753
 30
0.0
 10
96.10439004817275
 20
197.4118994080473
 30
0.0
 10
96.64145892335986
 20
197.9491446721188
 30
0.0
 10
97.30429307311623
 20
197.9491446721188
 30
0.0
 10
97.30429307311623
 20
197.9491446721188
 30
0.0
 10
98.40432471171874
 20
197.9491446721188
 30
0.0
 10
98.40432471171874
 20
197.9491446721188
 30
0.0
 10
99.06715886147511
 20
197.9491446721188
 30
0.0
 10
99.6042630144391
 20
197.4118994080473
 30
0.0
 10
99.6042630144391
 20
196.7492416471753
 30
0.0
 10
99.6042630144391
 20
196.7492416471753
 30
0.0
 10
99.6042630144391
 20
195.6492100085728
 30
0.0
 10
99.6042630144391
 20
195.6492100085728
 30
0.0
 10
99.6042630144391
 20
194.9865522477008
 30
0.0
 10
99.06715886147511
 20
194.4490953169681
 30
0.0
 10
98.40432471171874
 20
194.4490953169681
 30
0.0
  0
POLYLINE
  5
515
330
1F
100
AcDbEntity
  8
0
 62
     7
420
 16777215
370
    25
100
AcDb2dPolyline
 66
     1
 10
0.0
 20
0.0
 30
0.0
  0
VERTEX
  5
516
330
515
100
AcDbEntity
  8
0
 62
     7
420
 16777215
370
    25
100
AcDbVertex
100
AcDb2dVertex
 10
100.1041491127971
 20
193.6991250583236
 30
0.0
  0
VERTEX
  5
517
330
515
100
AcDbEntity
  8
0
 62
     7
420
 16777215
370
    25
100
AcDbVertex
100
AcDb2dVertex
 10
100.1041491127971
 20
198.6991502085401
 30
0.0
  0
VERTEX
  5
518
330
515
100
AcDbEntity
  8
0
 62
     7
420
 16777215
370
    25
100
AcDbVertex
100
AcDb2dVertex
 10
95.60415117204602
 20
198.6991502085401
 30
0.0
  0
VERTEX
  5
519
330
515
100
AcDbEntity
  8
0
 62
     7
420
 16777215
370
    25
100
AcDbVertex
100
AcDb2dVertex
 10
95.60415117204602
 20
193.6991250583236
 30
0.0
  0
VERTEX
  5
51A
330
515
100
AcDbEntity
  8
0
 62
     7
420
 16777215
370
    25
100
AcDbVertex
100
AcDb2dVertex
 10
100.1041491127971
 20
193.6991250583236
 30
0.0
  0
SEQEND
  5
51B
330
515
100
AcDbEntity
  8
0
 62
     7
420
 16777215
370
    25
  0
SPLINE
  5
51C
330
1F
100
AcDbEntity
  8
0
 62
     7
420
 16777215
370
    25
100
AcDbSpline
210
0.0
220
0.0
230
1.0
 70
    11
 71
     3
 72
    29
 73
    25
 74
     0
 42
0.0000000001
 43
0.0000000001
 12
1.0
 22
0.0
 32
0.0
 13
1.0
 23
0.0
 33
0.0
 40
0.0
 40
0.0
 40
0.0
 40
0.0
 40
1.0
 40
1.0
 40
1.0
 40
2.0
 40
2.0
 40
2.0
 40
3.0
 40
3.0
 40
3.0
 40
4.0
 40
4.0
 40
4.0
 40
5.0
 40
5.0
 40
5.0
 40
6.0
 40
6.0
 40
6.0
 40
7.0
 40
7.0
 40
7.0
 40
8.0
 40
8.0
 40
8.0
 40
8.0
 10
110.904161083385
 20
194.4490953169681
 30
0.0
 10
110.904161083385
 20
194.4490953169681
 30
0.0
 10
109.8041619208847
 20
194.4490953169681
 30
0.0
 10
109.8041619208847
 20
194.4490953169681
 30
0.0
 10
109.1413305282704
 20
194.4490953169681
 30
0.0
 10
108.6042236181643
 20
194.9865522477008
 30
0.0
 10
108.6042236181643
 20
195.6492100085728
 30
0.0
 10
108.6042236181643
 20
195.6492100085728
 30
0.0
 10
108.6042236181643
 20
196.7492416471753
 30
0.0
 10
108.6042236181643
 20
196.7492416471753
 30
0.0
 10
108.6042236181643
 20
197.4118994080473
 30
0.0
 10
109.1413305282704
 20
197.9491446721188
 30
0.0
 10
109.8041619208847
 20
197.9491446721188
 30
0.0
 10
109.8041619208847
 20
197.9491446721188
 30
0.0
 10
110.904161083385
 20
197.9491446721188
 30
0.0
 10
110.904161083385
 20
197.9491446721188
 30
0.0
 10
111.5669924314667
 20
197.9491446721188
 30
0.0
 10
112.1040965844307
 20
197.4118994080473
 30
0.0
 10
112.1040965844307
 20
196.7492416471753
 30
0.0
 10
112.1040965844307
 20
196.7492416471753
 30
0.0
 10
112.1040965844307
 20
195.6492100085728
 30
0.0
 10
112.1040965844307
 20
195.6492100085728
 30
0.0
 10
112.1040965844307
 20
194.9865522477008
 30
0.0
 10
111.5669924314667
 20
194.4490953169681
 30
0.0
 10
110.904161083385
 20
194.4490953169681
 30
0.0
  0
POLYLINE
  5
51D
330
1F
100
AcDbEntity
  8
0
 62
     7
420
 16777215
370
    25
100
AcDb2dPolyline
 66
     1
 10
0.0
 20
0.0
 30
0.0
  0
VERTEX
  5
51E
330
51D
100
AcDbEntity
  8
0
 62
     7
420
 16777215
370
    25
100
AcDbVertex
100
AcDb2dVertex
 10
112.6043354605574
 20
193.6991250583236
 30
0.0
  0
VERTEX
  5
51F
330
51D
100
AcDbEntity
  8
0
 62
     7
420
 16777215
370
    25
100
AcDbVertex
100
AcDb2dVertex
 10
112.6043354605574
 20
198.6991502085401
 30
0.0
  0
VERTEX
  5
520
330
51D
100
AcDbEntity
  8
0
 62
     7
420
 16777215
370
    25
100
AcDbVertex
100
AcDb2dVertex
 10
108.1043375198064
 20
198.6991502085401
 30
0.0
  0
VERTEX
  5
521
330
51D
100
AcDbEntity
  8
0
 62
     7
420
 16777215
370
    25
100
AcDbVertex
100
AcDb2dVertex
 10
108.1043375198064
 20
193.6991250583236
 30
0.0
  0
VERTEX
  5
522
330
51D
100
AcDbEntity
  8
0
 62
     7
420
 16777215
370
    25
100
AcDbVertex
100
AcDb2dVertex
 10
112.6043354605574
 20
193.6991250583236
 30
0.0
  0
SEQEND
  5
523
330
51D
100
AcDbEntity
  8
0
 62
     7
420
 16777215
370
    25
  0
SPLINE
  5
524
330
1F
100
AcDbEntity
  8
0
 62
     7
420
 16777215
370
    25
100
AcDbSpline
210
0.0
220
0.0
230
1.0
 70
    11
 71
     3
 72
    29
 73
    25
 74
     0
 42
0.0000000001
 43
0.0000000001
 12
1.0
 22
0.0
 32
0.0
 13
1.0
 23
0.0
 33
0.0
 40
0.0
 40
0.0
 40
0.0
 40
0.0
 40
1.0
 40
1.0
 40
1.0
 40
2.0
 40
2.0
 40
2.0
 40
3.0
 40
3.0
 40
3.0
 40
4.0
 40
4.0
 40
4.0
 40
5.0
 40
5.0
 40
5.0
 40
6.0
 40
6.0
 40
6.0
 40
7.0
 40
7.0
 40
7.0
 40
8.0
 40
8.0
 40
8.0
 40
8.0
 10
123.4043446294707
 20
194.4490953169681
 30
0.0
 10
123.4043446294707
 20
194.4490953169681
 30
0.0
 10
122.304348268645
 20
194.4490953169681
 30
0.0
 10
122.304348268645
 20
194.4490953169681
 30
0.0
 10
121.6414788411118
 20
194.4490953169681
 30
0.0
 10
121.1040571881559
 20
194.9865522477008
 30
0.0
 10
121.1040571881559
 20
195.6492100085728
 30
0.0
 10
121.1040571881559
 20
195.6492100085728
 30
0.0
 10
121.1040571881559
 20
196.7492416471753
 30
0.0
 10
121.1040571881559
 20
196.7492416471753
 30
0.0
 10
121.1040571881559
 20
197.4118994080473
 30
0.0
 10
121.6414788411118
 20
197.9491446721188
 30
0.0
 10
122.304348268645
 20
197.9491446721188
 30
0.0
 10
122.304348268645
 20
197.9491446721188
 30
0.0
 10
123.4043446294707
 20
197.9491446721188
 30
0.0
 10
123.4043446294707
 20
197.9491446721188
 30
0.0
 10
124.0668260014582
 20
197.9491446721188
 30
0.0
 10
124.6042860799603
 20
197.4118994080473
 30
0.0
 10
124.6042860799603
 20
196.7492416471753
 30
0.0
 10
124.6042860799603
 20
196.7492416471753
 30
0.0
 10
124.6042860799603
 20
195.6492100085728
 30
0.0
 10
124.6042860799603
 20
195.6492100085728
 30
0.0
 10
124.6042860799603
 20
194.9865522477008
 30
0.0
 10
124.0668260014582
 20
194.4490953169681
 30
0.0
 10
123.4043446294707
 20
194.4490953169681
 30
0.0
  0
POLYLINE
  5
525
330
1F
100
AcDbEntity
  8
0
 62
     7
420
 16777215
370
    25
100
AcDb2dPolyline
 66
     1
 10
0.0
 20
0.0
 30
0.0
  0
VERTEX
  5
526
330
525
100
AcDbEntity
  8
0
 62
     7
420
 16777215
370
    25
100
AcDbVertex
100
AcDb2dVertex
 10
125.1041721909463
 20
193.6991250583236
 30
0.0
  0
VERTEX
  5
527
330
525
100
AcDbEntity
  8
0
 62
     7
420
 16777215
370
    25
100
AcDbVertex
100
AcDb2dVertex
 10
125.1041721909463
 20
198.6991502085401
 30
0.0
  0
VERTEX
  5
528
330
525
100
AcDbEntity
  8
0
 62
     7
420
 16777215
370
    25
100
AcDbVertex
100
AcDb2dVertex
 10
120.6041710897979
 20
198.6991502085401
 30
0.0
  0
VERTEX
  5
529
330
525
100
AcDbEntity
  8
0
 62
     7
420
 16777215
370
    25
100
AcDbVertex
100
AcDb2dVertex
 10
120.6041710897979
 20
193.6991250583236
 30
0.0
  0
VERTEX
  5
52A
330
525
100
AcDbEntity
  8
0
 62
     7
420
 16777215
370
    25
100
AcDbVertex
100
AcDb2dVertex
 10
125.1041721909463
 20
193.6991250583236
 30
0.0
  0
SEQEND
  5
52B
330
525
100
AcDbEntity
  8
0
 62
     7
420
 16777215
370
    25
  0
SPLINE
  5
52C
330
1F
100
AcDbEntity
  8
0
 62
     7
420
 16777215
370
    25
100
AcDbSpline
210
0.0
220
0.0
230
1.0
 70
    11
 71
     3
 72
    29
 73
    25
 74
     0
 42
0.0000000001
 43
0.0000000001
 12
1.0
 22
0.0
 32
0.0
 13
1.0
 23
0.0
 33
0.0
 40
0.0
 40
0.0
 40
0.0
 40
0.0
 40
1.0
 40
1.0
 40
1.0
 40
2.0
 40
2.0
 40
2.0
 40
3.0
 40
3.0
 40
3.0
 40
4.0
 40
4.0
 40
4.0
 40
5.0
 40
5.0
 40
5.0
 40
6.0
 40
6.0
 40
6.0
 40
7.0
 40
7.0
 40
7.0
 40
8.0
 40
8.0
 40
8.0
 40
8.0
 10
135.9041781994622
 20
194.4490953169681
 30
0.0
 10
135.9041781994622
 20
194.4490953169681
 30
0.0
 10
134.8041818386366
 20
194.4490953169681
 30
0.0
 10
134.8041818386366
 20
194.4490953169681
 30
0.0
 10
134.1413476888802
 20
194.4490953169681
 30
0.0
 10
133.6042435359162
 20
194.9865522477008
 30
0.0
 10
133.6042435359162
 20
195.6492100085728
 30
0.0
 10
133.6042435359162
 20
195.6492100085728
 30
0.0
 10
133.6042435359162
 20
196.7492416471753
 30
0.0
 10
133.6042435359162
 20
196.7492416471753
 30
0.0
 10
133.6042435359162
 20
197.4118994080473
 30
0.0
 10
134.1413476888802
 20
197.9491446721188
 30
0.0
 10
134.8041818386366
 20
197.9491446721188
 30
0.0
 10
134.8041818386366
 20
197.9491446721188
 30
0.0
 10
135.9041781994622
 20
197.9491446721188
 30
0.0
 10
135.9041781994622
 20
197.9491446721188
 30
0.0
 10
136.5670123492186
 20
197.9491446721188
 30
0.0
 10
137.1041165021826
 20
197.4118994080473
 30
0.0
 10
137.1041165021826
 20
196.7492416471753
 30
0.0
 10
137.1041165021826
 20
196.7492416471753
 30
0.0
 10
137.1041165021826
 20
195.6492100085728
 30
0.0
 10
137.1041165021826
 20
195.6492100085728
 30
0.0
 10
137.1041165021826
 20
194.9865522477008
 30
0.0
 10
136.5670123492186
 20
194.4490953169681
 30
0.0
 10
135.9041781994622
 20
194.4490953169681
 30
0.0
  0
POLYLINE
  5
52D
330
1F
100
AcDbEntity
  8
0
 62
     7
420
 16777215
370
    25
100
AcDb2dPolyline
 66
     1
 10
0.0
 20
0.0
 30
0.0
  0
VERTEX
  5
52E
330
52D
100
AcDbEntity
  8
0
 62
     7
420
 16777215
370
    25
100
AcDbVertex
100
AcDb2dVertex
 10
137.6043553783093
 20
193.6991250583236
 30
0.0
  0
VERTEX
  5
52F
330
52D
100
AcDbEntity
  8
0
 62
     7
420
 16777215
370
    25
100
AcDbVertex
100
AcDb2dVertex
 10
137.6043553783093
 20
198.6991502085401
 30
0.0
  0
VERTEX
  5
530
330
52D
100
AcDbEntity
  8
0
 62
     7
420
 16777215
370
    25
100
AcDbVertex
100
AcDb2dVertex
 10
133.1043574375583
 20
198.6991502085401
 30
0.0
  0
VERTEX
  5
531
330
52D
100
AcDbEntity
  8
0
 62
     7
420
 16777215
370
    25
100
AcDbVertex
100
AcDb2dVertex
 10
133.1043574375583
 20
193.6991250583236
 30
0.0
  0
VERTEX
  5
532
330
52D
100
AcDbEntity
  8
0
 62
     7
420
 16777215
370
    25
100
AcDbVertex
100
AcDb2dVertex
 10
137.6043553783093
 20
193.6991250583236
 30
0.0
  0
SEQEND
  5
533
330
52D
100
AcDbEntity
  8
0
 62
     7
420
 16777215
370
    25
  0
SPLINE
  5
534
330
1F
100
AcDbEntity
  8
0
 62
     7
420
 16777215
370
    25
100
AcDbSpline
210
0.0
220
0.0
230
1.0
 70
    11
 71
     3
 72
    29
 73
    25
 74
     0
 42
0.0000000001
 43
0.0000000001
 12
1.0
 22
0.0
 32
0.0
 13
1.0
 23
0.0
 33
0.0
 40
0.0
 40
0.0
 40
0.0
 40
0.0
 40
1.0
 40
1.0
 40
1.0
 40
2.0
 40
2.0
 40
2.0
 40
3.0
 40
3.0
 40
3.0
 40
4.0
 40
4.0
 40
4.0
 40
5.0
 40
5.0
 40
5.0
 40
6.0
 40
6.0
 40
6.0
 40
7.0
 40
7.0
 40
7.0
 40
8.0
 40
8.0
 40
8.0
 40
8.0
 10
148.4043645472226
 20
194.4490953169681
 30
0.0
 10
148.4043645472226
 20
194.4490953169681
 30
0.0
 10
147.3043681863969
 20
194.4490953169681
 30
0.0
 10
147.3043681863969
 20
194.4490953169681
 30
0.0
 10
146.6415340366406
 20
194.4490953169681
 30
0.0
 10
146.1040771059078
 20
194.9865522477008
 30
0.0
 10
146.1040771059078
 20
195.6492100085728
 30
0.0
 10
146.1040771059078
 20
195.6492100085728
 30
0.0
 10
146.1040771059078
 20
196.7492416471753
 30
0.0
 10
146.1040771059078
 20
196.7492416471753
 30
0.0
 10
146.1040771059078
 20
197.4118994080473
 30
0.0
 10
146.6415340366406
 20
197.9491446721188
 30
0.0
 10
147.3043681863969
 20
197.9491446721188
 30
0.0
 10
147.3043681863969
 20
197.9491446721188
 30
0.0
 10
148.4043645472226
 20
197.9491446721188
 30
0.0
 10
148.4043645472226
 20
197.9491446721188
 30
0.0
 10
149.066881196987
 20
197.9491446721188
 30
0.0
 10
149.6043028499429
 20
197.4118994080473
 30
0.0
 10
149.6043028499429
 20
196.7492416471753
 30
0.0
 10
149.6043028499429
 20
196.7492416471753
 30
0.0
 10
149.6043028499429
 20
195.6492100085728
 30
0.0
 10
149.6043028499429
 20
195.6492100085728
 30
0.0
 10
149.6043028499429
 20
194.9865522477008
 30
0.0
 10
149.066881196987
 20
194.4490953169681
 30
0.0
 10
148.4043645472226
 20
194.4490953169681
 30
0.0
  0
POLYLINE
  5
535
330
1F
100
AcDbEntity
  8
0
 62
     7
420
 16777215
370
    25
100
AcDb2dPolyline
 66
     1
 10
0.0
 20
0.0
 30
0.0
  0
VERTEX
  5
536
330
535
100
AcDbEntity
  8
0
 62
     7
420
 16777215
370
    25
100
AcDbVertex
100
AcDb2dVertex
 10
150.1041889483009
 20
193.6991250583236
 30
0.0
  0
VERTEX
  5
537
330
535
100
AcDbEntity
  8
0
 62
     7
420
 16777215
370
    25
100
AcDbVertex
100
AcDb2dVertex
 10
150.1041889483009
 20
198.6991502085401
 30
0.0
  0
VERTEX
  5
538
330
535
100
AcDbEntity
  8
0
 62
     7
420
 16777215
370
    25
100
AcDbVertex
100
AcDb2dVertex
 10
145.6041910075498
 20
198.6991502085401
 30
0.0
  0
VERTEX
  5
539
330
535
100
AcDbEntity
  8
0
 62
     7
420
 16777215
370
    25
100
AcDbVertex
100
AcDb2dVertex
 10
145.6041910075498
 20
193.6991250583236
 30
0.0
  0
VERTEX
  5
53A
330
535
100
AcDbEntity
  8
0
 62
     7
420
 16777215
370
    25
100
AcDbVertex
100
AcDb2dVertex
 10
150.1041889483009
 20
193.6991250583236
 30
0.0
  0
SEQEND
  5
53B
330
535
100
AcDbEntity
  8
0
 62
     7
420
 16777215
370
    25
  0
SPLINE
  5
53C
330
1F
100
AcDbEntity
  8
0
 62
     7
420
 16777215
370
    25
100
AcDbSpline
210
0.0
220
0.0
230
1.0
 70
    11
 71
     3
 72
    29
 73
    25
 74
     0
 42
0.0000000001
 43
0.0000000001
 12
1.0
 22
0.0
 32
0.0
 13
1.0
 23
0.0
 33
0.0
 40
0.0
 40
0.0
 40
0.0
 40
0.0
 40
1.0
 40
1.0
 40
1.0
 40
2.0
 40
2.0
 40
2.0
 40
3.0
 40
3.0
 40
3.0
 40
4.0
 40
4.0
 40
4.0
 40
5.0
 40
5.0
 40
5.0
 40
6.0
 40
6.0
 40
6.0
 40
7.0
 40
7.0
 40
7.0
 40
8.0
 40
8.0
 40
8.0
 40
8.0
 10
160.9041981172142
 20
194.4490953169681
 30
0.0
 10
160.9041981172142
 20
194.4490953169681
 30
0.0
 10
159.8042017563885
 20
194.4490953169681
 30
0.0
 10
159.8042017563885
 20
194.4490953169681
 30
0.0
 10
159.1413676066321
 20
194.4490953169681
 30
0.0
 10
158.6042634536681
 20
194.9865522477008
 30
0.0
 10
158.6042634536681
 20
195.6492100085728
 30
0.0
 10
158.6042634536681
 20
195.6492100085728
 30
0.0
 10
158.6042634536681
 20
196.7492416471753
 30
0.0
 10
158.6042634536681
 20
196.7492416471753
 30
0.0
 10
158.6042634536681
 20
197.4118994080473
 30
0.0
 10
159.1413676066321
 20
197.9491446721188
 30
0.0
 10
159.8042017563885
 20
197.9491446721188
 30
0.0
 10
159.8042017563885
 20
197.9491446721188
 30
0.0
 10
160.9041981172142
 20
197.9491446721188
 30
0.0
 10
160.9041981172142
 20
197.9491446721188
 30
0.0
 10
161.5670675447474
 20
197.9491446721188
 30
0.0
 10
162.1041364199345
 20
197.4118994080473
 30
0.0
 10
162.1041364199345
 20
196.7492416471753
 30
0.0
 10
162.1041364199345
 20
196.7492416471753
 30
0.0
 10
162.1041364199345
 20
195.6492100085728
 30
0.0
 10
162.1041364199345
 20
195.6492100085728
 30
0.0
 10
162.1041364199345
 20
194.9865522477008
 30
0.0
 10
161.5670675447474
 20
194.4490953169681
 30
0.0
 10
160.9041981172142
 20
194.4490953169681
 30
0.0
  0
POLYLINE
  5
53D
330
1F
100
AcDbEntity
  8
0
 62
     7
420
 16777215
370
    25
100
AcDb2dPolyline
 66
     1
 10
0.0
 20
0.0
 30
0.0
  0
VERTEX
  5
53E
330
53D
100
AcDbEntity
  8
0
 62
     7
420
 16777215
370
    25
100
AcDbVertex
100
AcDb2dVertex
 10
162.6043752960612
 20
193.6991250583236
 30
0.0
  0
VERTEX
  5
53F
330
53D
100
AcDbEntity
  8
0
 62
     7
420
 16777215
370
    25
100
AcDbVertex
100
AcDb2dVertex
 10
162.6043752960612
 20
198.6991502085401
 30
0.0
  0
VERTEX
  5
540
330
53D
100
AcDbEntity
  8
0
 62
     7
420
 16777215
370
    25
100
AcDbVertex
100
AcDb2dVertex
 10
158.1043773553102
 20
198.6991502085401
 30
0.0
  0
VERTEX
  5
541
330
53D
100
AcDbEntity
  8
0
 62
     7
420
 16777215
370
    25
100
AcDbVertex
100
AcDb2dVertex
 10
158.1043773553102
 20
193.6991250583236
 30
0.0
  0
VERTEX
  5
542
330
53D
100
AcDbEntity
  8
0
 62
     7
420
 16777215
370
    25
100
AcDbVertex
100
AcDb2dVertex
 10
162.6043752960612
 20
193.6991250583236
 30
0.0
  0
SEQEND
  5
543
330
53D
100
AcDbEntity
  8
0
 62
     7
420
 16777215
370
    25
  0
SPLINE
  5
544
330
1F
100
AcDbEntity
  8
0
 62
     7
420
 16777215
370
    25
100
AcDbSpline
210
0.0
220
0.0
230
1.0
 70
    11
 71
     3
 72
    29
 73
    25
 74
     0
 42
0.0000000001
 43
0.0000000001
 12
1.0
 22
0.0
 32
0.0
 13
1.0
 23
0.0
 33
0.0
 40
0.0
 40
0.0
 40
0.0
 40
0.0
 40
1.0
 40
1.0
 40
1.0
 40
2.0
 40
2.0
 40
2.0
 40
3.0
 40
3.0
 40
3.0
 40
4.0
 40
4.0
 40
4.0
 40
5.0
 40
5.0
 40
5.0
 40
6.0
 40
6.0
 40
6.0
 40
7.0
 40
7.0
 40
7.0
 40
8.0
 40
8.0
 40
8.0
 40
8.0
 10
173.4040669649826
 20
194.4490953169681
 30
0.0
 10
173.4040669649826
 20
194.4490953169681
 30
0.0
 10
172.3043881041488
 20
194.4490953169681
 30
0.0
 10
172.3043881041488
 20
194.4490953169681
 30
0.0
 10
171.6415582904228
 20
194.4490953169681
 30
0.0
 10
171.1040970236597
 20
194.9865522477008
 30
0.0
 10
171.1040970236597
 20
195.6492100085728
 30
0.0
 10
171.1040970236597
 20
195.6492100085728
 30
0.0
 10
171.1040970236597
 20
196.7492416471753
 30
0.0
 10
171.1040970236597
 20
196.7492416471753
 30
0.0
 10
171.1040970236597
 20
197.4118994080473
 30
0.0
 10
171.6415582904228
 20
197.9491446721188
 30
0.0
 10
172.3043881041488
 20
197.9491446721188
 30
0.0
 10
172.3043881041488
 20
197.9491446721188
 30
0.0
 10
173.4040669649826
 20
197.9491446721188
 30
0.0
 10
173.4040669649826
 20
197.9491446721188
 30
0.0
 10
174.0669055120387
 20
197.9491446721188
 30
0.0
 10
174.6043227676948
 20
197.4118994080473
 30
0.0
 10
174.6043227676948
 20
196.7492416471753
 30
0.0
 10
174.6043227676948
 20
196.7492416471753
 30
0.0
 10
174.6043227676948
 20
195.6492100085728
 30
0.0
 10
174.6043227676948
 20
195.6492100085728
 30
0.0
 10
174.6043227676948
 20
194.9865522477008
 30
0.0
 10
174.0669055120387
 20
194.4490953169681
 30
0.0
 10
173.4040669649826
 20
194.4490953169681
 30
0.0
  0
POLYLINE
  5
545
330
1F
100
AcDbEntity
  8
0
 62
     7
420
 16777215
370
    25
100
AcDb2dPolyline
 66
     1
 10
0.0
 20
0.0
 30
0.0
  0
VERTEX
  5
546
330
545
100
AcDbEntity
  8
0
 62
     7
420
 16777215
370
    25
100
AcDbVertex
100
AcDb2dVertex
 10
175.1042088660528
 20
193.6991250583236
 30
0.0
  0
VERTEX
  5
547
330
545
100
AcDbEntity
  8
0
 62
     7
420
 16777215
370
    25
100
AcDbVertex
100
AcDb2dVertex
 10
175.1042088660528
 20
198.6991502085401
 30
0.0
  0
VERTEX
  5
548
330
545
100
AcDbEntity
  8
0
 62
     7
420
 16777215
370
    25
100
AcDbVertex
100
AcDb2dVertex
 10
170.6042109253017
 20
198.6991502085401
 30
0.0
  0
VERTEX
  5
549
330
545
100
AcDbEntity
  8
0
 62
     7
420
 16777215
370
    25
100
AcDbVertex
100
AcDb2dVertex
 10
170.6042109253017
 20
193.6991250583236
 30
0.0
  0
VERTEX
  5
54A
330
545
100
AcDbEntity
  8
0
 62
     7
420
 16777215
370
    25
100
AcDbVertex
100
AcDb2dVertex
 10
175.1042088660528
 20
193.6991250583236
 30
0.0
  0
SEQEND
  5
54B
330
545
100
AcDbEntity
  8
0
 62
     7
420
 16777215
370
    25
  0
SPLINE
  5
54C
330
1F
100
AcDbEntity
  8
0
 62
     7
420
 16777215
370
    25
100
AcDbSpline
210
0.0
220
0.0
230
1.0
 70
    11
 71
     3
 72
    29
 73
    25
 74
     0
 42
0.0000000001
 43
0.0000000001
 12
1.0
 22
0.0
 32
0.0
 13
1.0
 23
0.0
 33
0.0
 40
0.0
 40
0.0
 40
0.0
 40
0.0
 40
1.0
 40
1.0
 40
1.0
 40
2.0
 40
2.0
 40
2.0
 40
3.0
 40
3.0
 40
3.0
 40
4.0
 40
4.0
 40
4.0
 40
5.0
 40
5.0
 40
5.0
 40
6.0
 40
6.0
 40
6.0
 40
7.0
 40
7.0
 40
7.0
 40
8.0
 40
8.0
 40
8.0
 40
8.0
 10
185.9042533127429
 20
194.4490953169681
 30
0.0
 10
185.9042533127429
 20
194.4490953169681
 30
0.0
 10
184.8042216741404
 20
194.4490953169681
 30
0.0
 10
184.8042216741404
 20
194.4490953169681
 30
0.0
 10
184.141387524384
 20
194.4490953169681
 30
0.0
 10
183.6042833714201
 20
194.9865522477008
 30
0.0
 10
183.6042833714201
 20
195.6492100085728
 30
0.0
 10
183.6042833714201
 20
195.6492100085728
 30
0.0
 10
183.6042833714201
 20
196.7492416471753
 30
0.0
 10
183.6042833714201
 20
196.7492416471753
 30
0.0
 10
183.6042833714201
 20
197.4118994080473
 30
0.0
 10
184.141387524384
 20
197.9491446721188
 30
0.0
 10
184.8042216741404
 20
197.9491446721188
 30
0.0
 10
184.8042216741404
 20
197.9491446721188
 30
0.0
 10
185.9042533127429
 20
197.9491446721188
 30
0.0
 10
185.9042533127429
 20
197.9491446721188
 30
0.0
 10
186.5670874624993
 20
197.9491446721188
 30
0.0
 10
187.104161064335
 20
197.4118994080473
 30
0.0
 10
187.104161064335
 20
196.7492416471753
 30
0.0
 10
187.104161064335
 20
196.7492416471753
 30
0.0
 10
187.104161064335
 20
195.6492100085728
 30
0.0
 10
187.104161064335
 20
195.6492100085728
 30
0.0
 10
187.104161064335
 20
194.9865522477008
 30
0.0
 10
186.5670874624993
 20
194.4490953169681
 30
0.0
 10
185.9042533127429
 20
194.4490953169681
 30
0.0
  0
POLYLINE
  5
54D
330
1F
100
AcDbEntity
  8
0
 62
     7
420
 16777215
370
    25
100
AcDb2dPolyline
 66
     1
 10
0.0
 20
0.0
 30
0.0
  0
VERTEX
  5
54E
330
54D
100
AcDbEntity
  8
0
 62
     7
420
 16777215
370
    25
100
AcDbVertex
100
AcDb2dVertex
 10
187.6040471753209
 20
193.6991250583236
 30
0.0
  0
VERTEX
  5
54F
330
54D
100
AcDbEntity
  8
0
 62
     7
420
 16777215
370
    25
100
AcDbVertex
100
AcDb2dVertex
 10
187.6040471753209
 20
198.6991502085401
 30
0.0
  0
VERTEX
  5
550
330
54D
100
AcDbEntity
  8
0
 62
     7
420
 16777215
370
    25
100
AcDbVertex
100
AcDb2dVertex
 10
183.1040797730702
 20
198.6991502085401
 30
0.0
  0
VERTEX
  5
551
330
54D
100
AcDbEntity
  8
0
 62
     7
420
 16777215
370
    25
100
AcDbVertex
100
AcDb2dVertex
 10
183.1040797730702
 20
193.6991250583236
 30
0.0
  0
VERTEX
  5
552
330
54D
100
AcDbEntity
  8
0
 62
     7
420
 16777215
370
    25
100
AcDbVertex
100
AcDb2dVertex
 10
187.6040471753209
 20
193.6991250583236
 30
0.0
  0
SEQEND
  5
553
330
54D
100
AcDbEntity
  8
0
 62
     7
420
 16777215
370
    25
  0
SPLINE
  5
554
330
1F
100
AcDbEntity
  8
0
 62
     7
420
 16777215
370
    25
100
AcDbSpline
210
0.0
220
0.0
230
1.0
 70
    11
 71
     3
 72
    29
 73
    25
 74
     0
 42
0.0000000001
 43
0.0000000001
 12
1.0
 22
0.0
 32
0.0
 13
1.0
 23
0.0
 33
0.0
 40
0.0
 40
0.0
 40
0.0
 40
0.0
 40
1.0
 40
1.0
 40
1.0
 40
2.0
 40
2.0
 40
2.0
 40
3.0
 40
3.0
 40
3.0
 40
4.0
 40
4.0
 40
4.0
 40
5.0
 40
5.0
 40
5.0
 40
6.0
 40
6.0
 40
6.0
 40
7.0
 40
7.0
 40
7.0
 40
8.0
 40
8.0
 40
8.0
 40
8.0
 10
198.4040868827345
 20
194.4490953169681
 30
0.0
 10
198.4040868827345
 20
194.4490953169681
 30
0.0
 10
197.304055244132
 20
194.4490953169681
 30
0.0
 10
197.304055244132
 20
194.4490953169681
 30
0.0
 10
196.6415738721444
 20
194.4490953169681
 30
0.0
 10
196.1041169414116
 20
194.9865522477008
 30
0.0
 10
196.1041169414116
 20
195.6492100085728
 30
0.0
 10
196.1041169414116
 20
195.6492100085728
 30
0.0
 10
196.1041169414116
 20
196.7492416471753
 30
0.0
 10
196.1041169414116
 20
196.7492416471753
 30
0.0
 10
196.1041169414116
 20
197.4118994080473
 30
0.0
 10
196.6415738721444
 20
197.9491446721188
 30
0.0
 10
197.304055244132
 20
197.9491446721188
 30
0.0
 10
197.304055244132
 20
197.9491446721188
 30
0.0
 10
198.4040868827345
 20
197.9491446721188
 30
0.0
 10
198.4040868827345
 20
197.9491446721188
 30
0.0
 10
199.0669210324909
 20
197.9491446721188
 30
0.0
 10
199.6043426854467
 20
197.4118994080473
 30
0.0
 10
199.6043426854467
 20
196.7492416471753
 30
0.0
 10
199.6043426854467
 20
196.7492416471753
 30
0.0
 10
199.6043426854467
 20
195.6492100085728
 30
0.0
 10
199.6043426854467
 20
195.6492100085728
 30
0.0
 10
199.6043426854467
 20
194.9865522477008
 30
0.0
 10
199.0669210324909
 20
194.4490953169681
 30
0.0
 10
198.4040868827345
 20
194.4490953169681
 30
0.0
  0
POLYLINE
  5
555
330
1F
100
AcDbEntity
  8
0
 62
     7
420
 16777215
370
    25
100
AcDb2dPolyline
 66
     1
 10
0.0
 20
0.0
 30
0.0
  0
VERTEX
  5
556
330
555
100
AcDbEntity
  8
0
 62
     7
420
 16777215
370
    25
100
AcDbVertex
100
AcDb2dVertex
 10
200.1042287838047
 20
193.6991250583236
 30
0.0
  0
VERTEX
  5
557
330
555
100
AcDbEntity
  8
0
 62
     7
420
 16777215
370
    25
100
AcDbVertex
100
AcDb2dVertex
 10
200.1042287838047
 20
198.6991502085401
 30
0.0
  0
VERTEX
  5
558
330
555
100
AcDbEntity
  8
0
 62
     7
420
 16777215
370
    25
100
AcDbVertex
100
AcDb2dVertex
 10
195.6042661208305
 20
198.6991502085401
 30
0.0
  0
VERTEX
  5
559
330
555
100
AcDbEntity
  8
0
 62
     7
420
 16777215
370
    25
100
AcDbVertex
100
AcDb2dVertex
 10
195.6042661208305
 20
193.6991250583236
 30
0.0
  0
VERTEX
  5
55A
330
555
100
AcDbEntity
  8
0
 62
     7
420
 16777215
370
    25
100
AcDbVertex
100
AcDb2dVertex
 10
200.1042287838047
 20
193.6991250583236
 30
0.0
  0
SEQEND
  5
55B
330
555
100
AcDbEntity
  8
0
 62
     7
420
 16777215
370
    25
  0
SPLINE
  5
55C
330
1F
100
AcDbEntity
  8
0
 62
     7
420
 16777215
370
    25
100
AcDbSpline
210
0.0
220
0.0
230
1.0
 70
    11
 71
     3
 72
    29
 73
    25
 74
     0
 42
0.0000000001
 43
0.0000000001
 12
1.0
 22
0.0
 32
0.0
 13
1.0
 23
0.0
 33
0.0
 40
0.0
 40
0.0
 40
0.0
 40
0.0
 40
1.0
 40
1.0
 40
1.0
 40
2.0
 40
2.0
 40
2.0
 40
3.0
 40
3.0
 40
3.0
 40
4.0
 40
4.0
 40
4.0
 40
5.0
 40
5.0
 40
5.0
 40
6.0
 40
6.0
 40
6.0
 40
7.0
 40
7.0
 40
7.0
 40
8.0
 40
8.0
 40
8.0
 40
8.0
 10
210.9042732304949
 20
194.4490953169681
 30
0.0
 10
210.9042732304949
 20
194.4490953169681
 30
0.0
 10
209.8042415918923
 20
194.4490953169681
 30
0.0
 10
209.8042415918923
 20
194.4490953169681
 30
0.0
 10
209.141407442136
 20
194.4490953169681
 30
0.0
 10
208.604303289172
 20
194.9865522477008
 30
0.0
 10
208.604303289172
 20
195.6492100085728
 30
0.0
 10
208.604303289172
 20
195.6492100085728
 30
0.0
 10
208.604303289172
 20
196.7492416471753
 30
0.0
 10
208.604303289172
 20
196.7492416471753
 30
0.0
 10
208.604303289172
 20
197.4118994080473
 30
0.0
 10
209.141407442136
 20
197.9491446721188
 30
0.0
 10
209.8042415918923
 20
197.9491446721188
 30
0.0
 10
209.8042415918923
 20
197.9491446721188
 30
0.0
 10
210.9042732304949
 20
197.9491446721188
 30
0.0
 10
210.9042732304949
 20
197.9491446721188
 30
0.0
 10
211.5671073802512
 20
197.9491446721188
 30
0.0
 10
212.1041762554383
 20
197.4118994080473
 30
0.0
 10
212.1041762554383
 20
196.7492416471753
 30
0.0
 10
212.1041762554383
 20
196.7492416471753
 30
0.0
 10
212.1041762554383
 20
195.6492100085728
 30
0.0
 10
212.1041762554383
 20
195.6492100085728
 30
0.0
 10
212.1041762554383
 20
194.9865522477008
 30
0.0
 10
211.5671073802512
 20
194.4490953169681
 30
0.0
 10
210.9042732304949
 20
194.4490953169681
 30
0.0
  0
POLYLINE
  5
55D
330
1F
100
AcDbEntity
  8
0
 62
     7
420
 16777215
370
    25
100
AcDb2dPolyline
 66
     1
 10
0.0
 20
0.0
 30
0.0
  0
VERTEX
  5
55E
330
55D
100
AcDbEntity
  8
0
 62
     7
420
 16777215
370
    25
100
AcDbVertex
100
AcDb2dVertex
 10
212.6040623537963
 20
193.6991250583236
 30
0.0
  0
VERTEX
  5
55F
330
55D
100
AcDbEntity
  8
0
 62
     7
420
 16777215
370
    25
100
AcDbVertex
100
AcDb2dVertex
 10
212.6040623537963
 20
198.6991502085401
 30
0.0
  0
VERTEX
  5
560
330
55D
100
AcDbEntity
  8
0
 62
     7
420
 16777215
370
    25
100
AcDbVertex
100
AcDb2dVertex
 10
208.1040996908221
 20
198.6991502085401
 30
0.0
  0
VERTEX
  5
561
330
55D
100
AcDbEntity
  8
0
 62
     7
420
 16777215
370
    25
100
AcDbVertex
100
AcDb2dVertex
 10
208.1040996908221
 20
193.6991250583236
 30
0.0
  0
VERTEX
  5
562
330
55D
100
AcDbEntity
  8
0
 62
     7
420
 16777215
370
    25
100
AcDbVertex
100
AcDb2dVertex
 10
212.6040623537963
 20
193.6991250583236
 30
0.0
  0
SEQEND
  5
563
330
55D
100
AcDbEntity
  8
0
 62
     7
420
 16777215
370
    25
  0
SPLINE
  5
564
330
1F
100
AcDbEntity
  8
0
 62
     7
420
 16777215
370
    25
100
AcDbSpline
210
0.0
220
0.0
230
1.0
 70
    11
 71
     3
 72
    29
 73
    25
 74
     0
 42
0.0000000001
 43
0.0000000001
 12
1.0
 22
0.0
 32
0.0
 13
1.0
 23
0.0
 33
0.0
 40
0.0
 40
0.0
 40
0.0
 40
0.0
 40
1.0
 40
1.0
 40
1.0
 40
2.0
 40
2.0
 40
2.0
 40
3.0
 40
3.0
 40
3.0
 40
4.0
 40
4.0
 40
4.0
 40
5.0
 40
5.0
 40
5.0
 40
6.0
 40
6.0
 40
6.0
 40
7.0
 40
7.0
 40
7.0
 40
8.0
 40
8.0
 40
8.0
 40
8.0
 10
223.4041068004864
 20
194.4490953169681
 30
0.0
 10
223.4041068004864
 20
194.4490953169681
 30
0.0
 10
222.3040751618839
 20
194.4490953169681
 30
0.0
 10
222.3040751618839
 20
194.4490953169681
 30
0.0
 10
221.6415937898963
 20
194.4490953169681
 30
0.0
 10
221.1041777225019
 20
194.9865522477008
 30
0.0
 10
221.1041777225019
 20
195.6492100085728
 30
0.0
 10
221.1041777225019
 20
195.6492100085728
 30
0.0
 10
221.1041777225019
 20
196.7492416471753
 30
0.0
 10
221.1041777225019
 20
196.7492416471753
 30
0.0
 10
221.1041777225019
 20
197.4118994080473
 30
0.0
 10
221.6415937898963
 20
197.9491446721188
 30
0.0
 10
222.3040751618839
 20
197.9491446721188
 30
0.0
 10
222.3040751618839
 20
197.9491446721188
 30
0.0
 10
223.4041068004864
 20
197.9491446721188
 30
0.0
 10
223.4041068004864
 20
197.9491446721188
 30
0.0
 10
224.0669409502428
 20
197.9491446721188
 30
0.0
 10
224.6043626031987
 20
197.4118994080473
 30
0.0
 10
224.6043626031987
 20
196.7492416471753
 30
0.0
 10
224.6043626031987
 20
196.7492416471753
 30
0.0
 10
224.6043626031987
 20
195.6492100085728
 30
0.0
 10
224.6043626031987
 20
195.6492100085728
 30
0.0
 10
224.6043626031987
 20
194.9865522477008
 30
0.0
 10
224.0669409502428
 20
194.4490953169681
 30
0.0
 10
223.4041068004864
 20
194.4490953169681
 30
0.0
  0
POLYLINE
  5
565
330
1F
100
AcDbEntity
  8
0
 62
     7
420
 16777215
370
    25
100
AcDb2dPolyline
 66
     1
 10
0.0
 20
0.0
 30
0.0
  0
VERTEX
  5
566
330
565
100
AcDbEntity
  8
0
 62
     7
420
 16777215
370
    25
100
AcDbVertex
100
AcDb2dVertex
 10
225.1042487015566
 20
193.6991250583236
 30
0.0
  0
VERTEX
  5
567
330
565
100
AcDbEntity
  8
0
 62
     7
420
 16777215
370
    25
100
AcDbVertex
100
AcDb2dVertex
 10
225.1042487015566
 20
198.6991502085401
 30
0.0
  0
VERTEX
  5
568
330
565
100
AcDbEntity
  8
0
 62
     7
420
 16777215
370
    25
100
AcDbVertex
100
AcDb2dVertex
 10
220.6042916115153
 20
198.6991502085401
 30
0.0
  0
VERTEX
  5
569
330
565
100
AcDbEntity
  8
0
 62
     7
420
 16777215
370
    25
100
AcDbVertex
100
AcDb2dVertex
 10
220.6042916115153
 20
193.6991250583236
 30
0.0
  0
VERTEX
  5
56A
330
565
100
AcDbEntity
  8
0
 62
     7
420
 16777215
370
    25
100
AcDbVertex
100
AcDb2dVertex
 10
225.1042487015566
 20
193.6991250583236
 30
0.0
  0
SEQEND
  5
56B
330
565
100
AcDbEntity
  8
0
 62
     7
420
 16777215
370
    25
  0
SPLINE
  5
56C
330
1F
100
AcDbEntity
  8
0
 62
     7
420
 16777215
370
    25
100
AcDbSpline
210
0.0
220
0.0
230
1.0
 70
    11
 71
     3
 72
    29
 73
    25
 74
     0
 42
0.0000000001
 43
0.0000000001
 12
1.0
 22
0.0
 32
0.0
 13
1.0
 23
0.0
 33
0.0
 40
0.0
 40
0.0
 40
0.0
 40
0.0
 40
1.0
 40
1.0
 40
1.0
 40
2.0
 40
2.0
 40
2.0
 40
3.0
 40
3.0
 40
3.0
 40
4.0
 40
4.0
 40
4.0
 40
5.0
 40
5.0
 40
5.0
 40
6.0
 40
6.0
 40
6.0
 40
7.0
 40
7.0
 40
7.0
 40
8.0
 40
8.0
 40
8.0
 40
8.0
 10
235.9042931482468
 20
194.4490953169681
 30
0.0
 10
235.9042931482468
 20
194.4490953169681
 30
0.0
 10
234.8042615096442
 20
194.4490953169681
 30
0.0
 10
234.8042615096442
 20
194.4490953169681
 30
0.0
 10
234.1414332747982
 20
194.4490953169681
 30
0.0
 10
233.6043232069239
 20
194.9865522477008
 30
0.0
 10
233.6043232069239
 20
195.6492100085728
 30
0.0
 10
233.6043232069239
 20
195.6492100085728
 30
0.0
 10
233.6043232069239
 20
196.7492416471753
 30
0.0
 10
233.6043232069239
 20
196.7492416471753
 30
0.0
 10
233.6043232069239
 20
197.4118994080473
 30
0.0
 10
234.1414332747982
 20
197.9491446721188
 30
0.0
 10
234.8042615096442
 20
197.9491446721188
 30
0.0
 10
234.8042615096442
 20
197.9491446721188
 30
0.0
 10
235.9042931482468
 20
197.9491446721188
 30
0.0
 10
235.9042931482468
 20
197.9491446721188
 30
0.0
 10
236.5671332741918
 20
197.9491446721188
 30
0.0
 10
237.1041961731902
 20
197.4118994080473
 30
0.0
 10
237.1041961731902
 20
196.7492416471753
 30
0.0
 10
237.1041961731902
 20
196.7492416471753
 30
0.0
 10
237.1041961731902
 20
195.6492100085728
 30
0.0
 10
237.1041961731902
 20
195.6492100085728
 30
0.0
 10
237.1041961731902
 20
194.9865522477008
 30
0.0
 10
236.5671332741918
 20
194.4490953169681
 30
0.0
 10
235.9042931482468
 20
194.4490953169681
 30
0.0
  0
POLYLINE
  5
56D
330
1F
100
AcDbEntity
  8
0
 62
     7
420
 16777215
370
    25
100
AcDb2dPolyline
 66
     1
 10
0.0
 20
0.0
 30
0.0
  0
VERTEX
  5
56E
330
56D
100
AcDbEntity
  8
0
 62
     7
420
 16777215
370
    25
100
AcDbVertex
100
AcDb2dVertex
 10
237.6040822715482
 20
193.6991250583236
 30
0.0
  0
VERTEX
  5
56F
330
56D
100
AcDbEntity
  8
0
 62
     7
420
 16777215
370
    25
100
AcDbVertex
100
AcDb2dVertex
 10
237.6040822715482
 20
198.6991502085401
 30
0.0
  0
VERTEX
  5
570
330
56D
100
AcDbEntity
  8
0
 62
     7
420
 16777215
370
    25
100
AcDbVertex
100
AcDb2dVertex
 10
233.104119608574
 20
198.6991502085401
 30
0.0
  0
VERTEX
  5
571
330
56D
100
AcDbEntity
  8
0
 62
     7
420
 16777215
370
    25
100
AcDbVertex
100
AcDb2dVertex
 10
233.104119608574
 20
193.6991250583236
 30
0.0
  0
VERTEX
  5
572
330
56D
100
AcDbEntity
  8
0
 62
     7
420
 16777215
370
    25
100
AcDbVertex
100
AcDb2dVertex
 10
237.6040822715482
 20
193.6991250583236
 30
0.0
  0
SEQEND
  5
573
330
56D
100
AcDbEntity
  8
0
 62
     7
420
 16777215
370
    25
  0
INSERT
  5
575
330
1F
100
AcDbEntity
  8
0
100
AcDbBlockReference
  2
block 115
 10
0.0
 20
0.0
 30
0.0
  0
INSERT
  5
57D
330
1F
100
AcDbEntity
  8
0
100
AcDbBlockReference
  2
block 116
 10
0.0
 20
0.0
 30
0.0
  0
INSERT
  5
585
330
1F
100
AcDbEntity
  8
0
100
AcDbBlockReference
  2
block 117
 10
0.0
 20
0.0
 30
0.0
  0
INSERT
  5
58D
330
1F
100
AcDbEntity
  8
0
100
AcDbBlockReference
  2
block 118
 10
0.0
 20
0.0
 30
0.0
  0
INSERT
  5
595
330
1F
100
AcDbEntity
  8
0
100
AcDbBlockReference
  2
block 119
 10
0.0
 20
0.0
 30
0.0
  0
INSERT
  5
59D
330
1F
100
AcDbEntity
  8
0
100
AcDbBlockReference
  2
block 120
 10
0.0
 20
0.0
 30
0.0
  0
INSERT
  5
5A5
330
1F
100
AcDbEntity
  8
0
100
AcDbBlockReference
  2
block 121
 10
0.0
 20
0.0
 30
0.0
  0
INSERT
  5
5AD
330
1F
100
AcDbEntity
  8
0
100
AcDbBlockReference
  2
block 122
 10
0.0
 20
0.0
 30
0.0
  0
INSERT
  5
5B5
330
1F
100
AcDbEntity
  8
0
100
AcDbBlockReference
  2
block 123
 10
0.0
 20
0.0
 30
0.0
  0
INSERT
  5
5BD
330
1F
100
AcDbEntity
  8
0
100
AcDbBlockReference
  2
block 124
 10
0.0
 20
0.0
 30
0.0
  0
INSERT
  5
5C5
330
1F
100
AcDbEntity
  8
0
100
AcDbBlockReference
  2
block 125
 10
0.0
 20
0.0
 30
0.0
  0
INSERT
  5
5CD
330
1F
100
AcDbEntity
  8
0
100
AcDbBlockReference
  2
block 126
 10
0.0
 20
0.0
 30
0.0
  0
INSERT
  5
5D5
330
1F
100
AcDbEntity
  8
0
100
AcDbBlockReference
  2
block 127
 10
0.0
 20
0.0
 30
0.0
  0
INSERT
  5
5DD
330
1F
100
AcDbEntity
  8
0
100
AcDbBlockReference
  2
block 128
 10
0.0
 20
0.0
 30
0.0
  0
INSERT
  5
5E5
330
1F
100
AcDbEntity
  8
0
100
AcDbBlockReference
  2
block 129
 10
0.0
 20
0.0
 30
0.0
  0
INSERT
  5
5ED
330
1F
100
AcDbEntity
  8
0
100
AcDbBlockReference
  2
block 130
 10
0.0
 20
0.0
 30
0.0
  0
INSERT
  5
5F5
330
1F
100
AcDbEntity
  8
0
100
AcDbBlockReference
  2
block 131
 10
0.0
 20
0.0
 30
0.0
  0
INSERT
  5
5FD
330
1F
100
AcDbEntity
  8
0
100
AcDbBlockReference
  2
block 132
 10
0.0
 20
0.0
 30
0.0
  0
INSERT
  5
605
330
1F
100
AcDbEntity
  8
0
100
AcDbBlockReference
  2
block 133
 10
0.0
 20
0.0
 30
0.0
  0
INSERT
  5
60D
330
1F
100
AcDbEntity
  8
0
100
AcDbBlockReference
  2
block 134
 10
0.0
 20
0.0
 30
0.0
  0
INSERT
  5
615
330
1F
100
AcDbEntity
  8
0
100
AcDbBlockReference
  2
block 135
 10
0.0
 20
0.0
 30
0.0
  0
INSERT
  5
61D
330
1F
100
AcDbEntity
  8
0
100
AcDbBlockReference
  2
block 136
 10
0.0
 20
0.0
 30
0.0
  0
INSERT
  5
625
330
1F
100
AcDbEntity
  8
0
100
AcDbBlockReference
  2
block 137
 10
0.0
 20
0.0
 30
0.0
  0
INSERT
  5
62D
330
1F
100
AcDbEntity
  8
0
100
AcDbBlockReference
  2
block 138
 10
0.0
 20
0.0
 30
0.0
  0
INSERT
  5
635
330
1F
100
AcDbEntity
  8
0
100
AcDbBlockReference
  2
block 139
 10
0.0
 20
0.0
 30
0.0
  0
INSERT
  5
63D
330
1F
100
AcDbEntity
  8
0
100
AcDbBlockReference
  2
block 140
 10
0.0
 20
0.0
 30
0.0
  0
INSERT
  5
645
330
1F
100
AcDbEntity
  8
0
100
AcDbBlockReference
  2
block 141
 10
0.0
 20
0.0
 30
0.0
  0
INSERT
  5
64D
330
1F
100
AcDbEntity
  8
0
100
AcDbBlockReference
  2
block 142
 10
0.0
 20
0.0
 30
0.0
  0
INSERT
  5
655
330
1F
100
AcDbEntity
  8
0
100
AcDbBlockReference
  2
block 143
 10
0.0
 20
0.0
 30
0.0
  0
INSERT
  5
65D
330
1F
100
AcDbEntity
  8
0
100
AcDbBlockReference
  2
block 144
 10
0.0
 20
0.0
 30
0.0
  0
INSERT
  5
665
330
1F
100
AcDbEntity
  8
0
100
AcDbBlockReference
  2
block 145
 10
0.0
 20
0.0
 30
0.0
  0
INSERT
  5
66D
330
1F
100
AcDbEntity
  8
0
100
AcDbBlockReference
  2
block 146
 10
0.0
 20
0.0
 30
0.0
  0
INSERT
  5
675
330
1F
100
AcDbEntity
  8
0
100
AcDbBlockReference
  2
block 147
 10
0.0
 20
0.0
 30
0.0
  0
INSERT
  5
67D
330
1F
100
AcDbEntity
  8
0
100
AcDbBlockReference
  2
block 148
 10
0.0
 20
0.0
 30
0.0
  0
INSERT
  5
685
330
1F
100
AcDbEntity
  8
0
100
AcDbBlockReference
  2
block 149
 10
0.0
 20
0.0
 30
0.0
  0
INSERT
  5
68D
330
1F
100
AcDbEntity
  8
0
100
AcDbBlockReference
  2
block 150
 10
0.0
 20
0.0
 30
0.0
  0
INSERT
  5
695
330
1F
100
AcDbEntity
  8
0
100
AcDbBlockReference
  2
block 151
 10
0.0
 20
0.0
 30
0.0
  0
INSERT
  5
69D
330
1F
100
AcDbEntity
  8
0
100
AcDbBlockReference
  2
block 152
 10
0.0
 20
0.0
 30
0.0
  0
INSERT
  5
6A5
330
1F
100
AcDbEntity
  8
0
100
AcDbBlockReference
  2
block 153
 10
0.0
 20
0.0
 30
0.0
  0
INSERT
  5
6AD
330
1F
100
AcDbEntity
  8
0
100
AcDbBlockReference
  2
block 154
 10
0.0
 20
0.0
 30
0.0
  0
INSERT
  5
6B5
330
1F
100
AcDbEntity
  8
0
100
AcDbBlockReference
  2
block 155
 10
0.0
 20
0.0
 30
0.0
  0
INSERT
  5
6BD
330
1F
100
AcDbEntity
  8
0
100
AcDbBlockReference
  2
block 156
 10
0.0
 20
0.0
 30
0.0
  0
INSERT
  5
6C5
330
1F
100
AcDbEntity
  8
0
100
AcDbBlockReference
  2
block 157
 10
0.0
 20
0.0
 30
0.0
  0
INSERT
  5
6CD
330
1F
100
AcDbEntity
  8
0
100
AcDbBlockReference
  2
block 158
 10
0.0
 20
0.0
 30
0.0
  0
INSERT
  5
6D5
330
1F
100
AcDbEntity
  8
0
100
AcDbBlockReference
  2
block 159
 10
0.0
 20
0.0
 30
0.0
  0
INSERT
  5
6DD
330
1F
100
AcDbEntity
  8
0
100
AcDbBlockReference
  2
block 160
 10
0.0
 20
0.0
 30
0.0
  0
INSERT
  5
6E5
330
1F
100
AcDbEntity
  8
0
100
AcDbBlockReference
  2
block 161
 10
0.0
 20
0.0
 30
0.0
  0
INSERT
  5
6ED
330
1F
100
AcDbEntity
  8
0
100
AcDbBlockReference
  2
block 162
 10
0.0
 20
0.0
 30
0.0
  0
INSERT
  5
6F5
330
1F
100
AcDbEntity
  8
0
100
AcDbBlockReference
  2
block 163
 10
0.0
 20
0.0
 30
0.0
  0
INSERT
  5
6FD
330
1F
100
AcDbEntity
  8
0
100
AcDbBlockReference
  2
block 164
 10
0.0
 20
0.0
 30
0.0
  0
INSERT
  5
705
330
1F
100
AcDbEntity
  8
0
100
AcDbBlockReference
  2
block 165
 10
0.0
 20
0.0
 30
0.0
  0
INSERT
  5
70D
330
1F
100
AcDbEntity
  8
0
100
AcDbBlockReference
  2
block 166
 10
0.0
 20
0.0
 30
0.0
  0
INSERT
  5
715
330
1F
100
AcDbEntity
  8
0
100
AcDbBlockReference
  2
block 167
 10
0.0
 20
0.0
 30
0.0
  0
INSERT
  5
71D
330
1F
100
AcDbEntity
  8
0
100
AcDbBlockReference
  2
block 168
 10
0.0
 20
0.0
 30
0.0
  0
INSERT
  5
725
330
1F
100
AcDbEntity
  8
0
100
AcDbBlockReference
  2
block 169
 10
0.0
 20
0.0
 30
0.0
  0
INSERT
  5
72D
330
1F
100
AcDbEntity
  8
0
100
AcDbBlockReference
  2
block 170
 10
0.0
 20
0.0
 30
0.0
  0
INSERT
  5
735
330
1F
100
AcDbEntity
  8
0
100
AcDbBlockReference
  2
block 171
 10
0.0
 20
0.0
 30
0.0
  0
INSERT
  5
73D
330
1F
100
AcDbEntity
  8
0
100
AcDbBlockReference
  2
block 172
 10
0.0
 20
0.0
 30
0.0
  0
INSERT
  5
745
330
1F
100
AcDbEntity
  8
0
100
AcDbBlockReference
  2
block 173
 10
0.0
 20
0.0
 30
0.0
  0
INSERT
  5
74D
330
1F
100
AcDbEntity
  8
0
100
AcDbBlockReference
  2
block 174
 10
0.0
 20
0.0
 30
0.0
  0
ENDSEC
  0
SECTION
  2
OBJECTS
  0
DICTIONARY
  5
C
330
0
100
AcDbDictionary
281
     1
  3
ACAD_GROUP
350
D
  3
ACAD_LAYOUT
350
1A
  3
ACAD_MATERIAL
350
3B
  3
ACAD_MLEADERSTYLE
350
755
  3
ACAD_MLINESTYLE
350
17
  3
ACAD_PLOTSETTINGS
350
19
  3
ACAD_PLOTSTYLENAME
350
E
  3
ACAD_TABLESTYLE
350
754
  3
ACAD_VISUALSTYLE
350
2A
  0
SUN
  5
3F
330
29
100
AcDbSun
 90
        1
290
     0
 63
     7
421
 16777215
 40
1.0
291
     1
 91
  2455826
 92
 54000000
292
     0
 70
     2
 71
   256
280
     1
  0
DICTIONARY
  5
D
102
{ACAD_REACTORS
330
C
102
}
330
C
100
AcDbDictionary
281
     1
  0
DICTIONARY
  5
1A
102
{ACAD_REACTORS
330
C
102
}
330
C
100
AcDbDictionary
281
     1
  3
Layout1
350
1E
  3
Layout2
350
26
  3
Model
350
22
  0
DICTIONARY
  5
3B
102
{ACAD_REACTORS
330
C
102
}
330
C
100
AcDbDictionary
281
     1
  3
ByBlock
350
3D
  3
ByLayer
350
3C
  3
Global
350
3E
  0
DICTIONARY
  5
755
102
{ACAD_REACTORS
330
C
102
}
330
C
100
AcDbDictionary
281
     1
  0
DICTIONARY
  5
17
102
{ACAD_REACTORS
330
C
102
}
330
C
100
AcDbDictionary
281
     1
  3
Standard
350
18
  0
DICTIONARY
  5
19
102
{ACAD_REACTORS
330
C
102
}
330
C
100
AcDbDictionary
281
     1
  0
ACDBDICTIONARYWDFLT
  5
E
102
{ACAD_REACTORS
330
C
102
}
330
C
100
AcDbDictionary
281
     1
  3
Normal
350
F
100
AcDbDictionaryWithDefault
340
F
  0
DICTIONARY
  5
754
102
{ACAD_REACTORS
330
C
102
}
330
C
100
AcDbDictionary
281
     1
  0
DICTIONARY
  5
2A
102
{ACAD_REACTORS
330
C
102
}
330
C
100
AcDbDictionary
281
     1
  3
2dWireframe
350
2F
  3
3D Hidden
350
31
  3
3dWireframe
350
30
  3
Basic
350
32
  3
Brighten
350
36
  3
ColorChange
350
3A
  3
Conceptual
350
34
  3
Dim
350
35
  3
Facepattern
350
39
  3
Flat
350
2B
  3
FlatWithEdges
350
2C
  3
Gouraud
350
2D
  3
GouraudWithEdges
350
2E
  3
Linepattern
350
38
  3
Realistic
350
33
  3
Thicken
350
37
  0
LAYOUT
  5
1E
102
{ACAD_REACTORS
330
1A
102
}
330
1A
100
AcDbPlotSettings
  1

  2
none_device
  4

  6

 40
0.0
 41
0.0
 42
0.0
 43
0.0
 44
0.0
 45
0.0
 46
0.0
 47
0.0
 48
0.0
 49
0.0
140
0.0
141
0.0
142
1.0
143
1.0
 70
   688
 72
     0
 73
     0
 74
     5
  7

 75
    16
 76
     0
 77
     2
 78
   300
147
1.0
148
0.0
149
0.0
100
AcDbLayout
  1
Layout1
 70
     1
 71
     1
 10
0.0
 20
0.0
 11
12.0
 21
9.0
 12
0.0
 22
0.0
 32
0.0
 14
1.000000000000000E+20
 24
1.000000000000000E+20
 34
1.000000000000000E+20
 15
-1.000000000000000E+20
 25
-1.000000000000000E+20
 35
-1.000000000000000E+20
146
0.0
 13
0.0
 23
0.0
 33
0.0
 16
1.0
 26
0.0
 36
0.0
 17
0.0
 27
1.0
 37
0.0
 76
     0
330
1B
  0
LAYOUT
  5
26
102
{ACAD_REACTORS
330
1A
102
}
330
1A
100
AcDbPlotSettings
  1

  2
none_device
  4

  6

 40
0.0
 41
0.0
 42
0.0
 43
0.0
 44
0.0
 45
0.0
 46
0.0
 47
0.0
 48
0.0
 49
0.0
140
0.0
141
0.0
142
1.0
143
1.0
 70
   688
 72
     0
 73
     0
 74
     5
  7

 75
    16
 76
     0
 77
     2
 78
   300
147
1.0
148
0.0
149
0.0
100
AcDbLayout
  1
Layout2
 70
     1
 71
     2
 10
0.0
 20
0.0
 11
0.0
 21
0.0
 12
0.0
 22
0.0
 32
0.0
 14
0.0
 24
0.0
 34
0.0
 15
0.0
 25
0.0
 35
0.0
146
0.0
 13
0.0
 23
0.0
 33
0.0
 16
1.0
 26
0.0
 36
0.0
 17
0.0
 27
1.0
 37
0.0
 76
     0
330
23
  0
LAYOUT
  5
22
102
{ACAD_REACTORS
330
1A
102
}
330
1A
100
AcDbPlotSettings
  1

  2
none_device
  4

  6

 40
0.0
 41
0.0
 42
0.0
 43
0.0
 44
0.0
 45
0.0
 46
0.0
 47
0.0
 48
0.0
 49
0.0
140
0.0
141
0.0
142
1.0
143
1.0
 70
  1712
 72
     0
 73
     0
 74
     0
  7

 75
     0
 76
     0
 77
     2
 78
   300
147
1.0
148
0.0
149
0.0
100
AcDbLayout
  1
Model
 70
     1
 71
     0
 10
0.0
 20
0.0
 11
12.0
 21
9.0
 12
0.0
 22
0.0
 32
0.0
 14
1.000000000000000E+20
 24
1.000000000000000E+20
 34
1.000000000000000E+20
 15
-1.000000000000000E+20
 25
-1.000000000000000E+20
 35
-1.000000000000000E+20
146
0.0
 13
0.0
 23
0.0
 33
0.0
 16
1.0
 26
0.0
 36
0.0
 17
0.0
 27
1.0
 37
0.0
 76
     0
330
1F
331
29
  0
MATERIAL
  5
3D
102
{ACAD_REACTORS
330
3B
102
}
330
3B
100
AcDbMaterial
  1
ByBlock
 72
     1
 94
      127
  0
MATERIAL
  5
3C
102
{ACAD_REACTORS
330
3B
102
}
330
3B
100
AcDbMaterial
  1
ByLayer
 72
     1
 94
      127
  0
MATERIAL
  5
3E
102
{ACAD_REACTORS
330
3B
102
}
330
3B
100
AcDbMaterial
  1
Global
 72
     1
 94
      127
  0
MLINESTYLE
  5
18
102
{ACAD_REACTORS
330
17
102
}
330
17
100
AcDbMlineStyle
  2
Standard
 70
     0
  3

 62
   256
 51
90.0
 52
90.0
 71
     2
 49
0.5
 62
   256
  6
BYLAYER
 49
-0.5
 62
   256
  6
BYLAYER
  0
ACDBPLACEHOLDER
  5
F
102
{ACAD_REACTORS
330
E
102
}
330
E
  0
VISUALSTYLE
  5
2F
102
{ACAD_REACTORS
330
2A
102
}
330
2A
100
AcDbVisualStyle
  2
2dWireframe
 70
     4
177
     2
291
     0
 71
     0
176
     1
 72
     2
176
     1
 73
     0
176
     1
 90
        0
176
     1
 40
-0.6
176
     1
 41
-30.0
176
     1
 62
     5
 63
     7
421
 16777215
176
     1
 74
     1
176
     1
 91
        4
176
     1
 64
     7
176
     1
 65
   257
176
     1
 75
     1
176
     1
175
     1
176
     1
 42
1.0
176
     1
 92
        0
176
     1
 66
   257
176
     1
 43
1.0
176
     1
 76
     1
176
     1
 77
     6
176
     1
 78
     2
176
     1
 67
     7
176
     1
 79
     5
176
     1
170
     0
176
     1
171
     0
176
     1
290
     0
176
     1
 93
        1
176
     1
 44
0.0
176
     1
173
     0
176
     1
  0
VISUALSTYLE
  5
31
102
{ACAD_REACTORS
330
2A
102
}
330
2A
100
AcDbVisualStyle
  2
3D Hidden
 70
     6
177
     2
291
     0
 71
     1
176
     1
 72
     2
176
     1
 73
     2
176
     1
 90
        0
176
     1
 40
-0.6
176
     1
 41
-30.0
176
     1
 62
     5
 63
     7
421
 16777215
176
     1
 74
     2
176
     1
 91
        2
176
     1
 64
     7
176
     1
 65
   257
176
     1
 75
     2
176
     1
175
     1
176
     1
 42
40.0
176
     1
 92
        0
176
     1
 66
   257
176
     1
 43
1.0
176
     1
 76
     1
176
     1
 77
     6
176
     1
 78
     2
176
     1
 67
     7
176
     1
 79
     3
176
     1
170
     0
176
     1
171
     0
176
     1
290
     0
176
     1
 93
        1
176
     1
 44
0.0
176
     1
173
     0
176
     1
  0
VISUALSTYLE
  5
30
102
{ACAD_REACTORS
330
2A
102
}
330
2A
100
AcDbVisualStyle
  2
3dWireframe
 70
     5
177
     2
291
     0
 71
     0
176
     1
 72
     2
176
     1
 73
     0
176
     1
 90
        0
176
     1
 40
-0.6
176
     1
 41
-30.0
176
     1
 62
     5
 63
     7
421
 16777215
176
     1
 74
     1
176
     1
 91
        4
176
     1
 64
     7
176
     1
 65
   257
176
     1
 75
     1
176
     1
175
     1
176
     1
 42
1.0
176
     1
 92
        0
176
     1
 66
   257
176
     1
 43
1.0
176
     1
 76
     1
176
     1
 77
     6
176
     1
 78
     2
176
     1
 67
     7
176
     1
 79
     5
176
     1
170
     0
176
     1
171
     0
176
     1
290
     0
176
     1
 93
        1
176
     1
 44
0.0
176
     1
173
     0
176
     1
  0
VISUALSTYLE
  5
32
102
{ACAD_REACTORS
330
2A
102
}
330
2A
100
AcDbVisualStyle
  2
Basic
 70
     7
177
     2
291
     1
 71
     1
176
     1
 72
     0
176
     1
 73
     1
176
     1
 90
        0
176
     1
 40
-0.6
176
     1
 41
-30.0
176
     1
 62
     5
 63
     7
421
 16777215
176
     1
 74
     0
176
     1
 91
        4
176
     1
 64
     7
176
     1
 65
   257
176
     1
 75
     1
176
     1
175
     1
176
     1
 42
1.0
176
     1
 92
        8
176
     1
 66
     7
176
     1
 43
1.0
176
     1
 76
     1
176
     1
 77
     6
176
     1
 78
     2
176
     1
 67
     7
176
     1
 79
     5
176
     1
170
     0
176
     1
171
     0
176
     1
290
     0
176
     1
 93
        1
176
     1
 44
0.0
176
     1
173
     0
176
     1
  0
VISUALSTYLE
  5
36
102
{ACAD_REACTORS
330
2A
102
}
330
2A
100
AcDbVisualStyle
  2
Brighten
 70
    12
177
     2
291
     1
 71
     2
176
     1
 72
     2
176
     1
 73
     0
176
     1
 90
        0
176
     1
 40
-0.6
176
     1
 41
-30.0
176
     1
 62
     5
 63
     7
421
 16777215
176
     1
 74
     1
176
     1
 91
        4
176
     1
 64
     7
176
     1
 65
   257
176
     1
 75
     1
176
     1
175
     1
176
     1
 42
1.0
176
     1
 92
        8
176
     1
 66
     7
176
     1
 43
1.0
176
     1
 76
     1
176
     1
 77
     6
176
     1
 78
     2
176
     1
 67
     7
176
     1
 79
     5
176
     1
170
     0
176
     1
171
     0
176
     1
290
     0
176
     1
 93
        1
176
     1
 44
50.0
176
     1
173
     0
176
     1
  0
VISUALSTYLE
  5
3A
102
{ACAD_REACTORS
330
2A
102
}
330
2A
100
AcDbVisualStyle
  2
ColorChange
 70
    16
177
     2
291
     1
 71
     2
176
     1
 72
     2
176
     1
 73
     3
176
     1
 90
        0
176
     1
 40
-0.6
176
     1
 41
-30.0
176
     1
 62
     5
 63
     8
421
  8421504
176
     1
 74
     1
176
     1
 91
        4
176
     1
 64
     7
176
     1
 65
   257
176
     1
 75
     1
176
     1
175
     1
176
     1
 42
1.0
176
     1
 92
        8
176
     1
 66
     8
424
  8421504
176
     1
 43
1.0
176
     1
 76
     1
176
     1
 77
     6
176
     1
 78
     2
176
     1
 67
     7
176
     1
 79
     5
176
     1
170
     0
176
     1
171
     0
176
     1
290
     0
176
     1
 93
        1
176
     1
 44
0.0
176
     1
173
     0
176
     1
  0
VISUALSTYLE
  5
34
102
{ACAD_REACTORS
330
2A
102
}
330
2A
100
AcDbVisualStyle
  2
Conceptual
 70
     9
177
     2
291
     0
 71
     3
176
     1
 72
     2
176
     1
 73
     0
176
     1
 90
        0
176
     1
 40
-0.6
176
     1
 41
-30.0
176
     1
 62
     5
 63
     7
421
 16777215
176
     1
 74
     2
176
     1
 91
        2
176
     1
 64
     7
176
     1
 65
   257
176
     1
 75
     1
176
     1
175
     1
176
     1
 42
40.0
176
     1
 92
        8
176
     1
 66
     7
176
     1
 43
1.0
176
     1
 76
     1
176
     1
 77
     6
176
     1
 78
     2
176
     1
 67
     7
176
     1
 79
     3
176
     1
170
     0
176
     1
171
     0
176
     1
290
     0
176
     1
 93
        1
176
     1
 44
0.0
176
     1
173
     0
176
     1
  0
VISUALSTYLE
  5
35
102
{ACAD_REACTORS
330
2A
102
}
330
2A
100
AcDbVisualStyle
  2
Dim
 70
    11
177
     2
291
     1
 71
     2
176
     1
 72
     2
176
     1
 73
     0
176
     1
 90
        0
176
     1
 40
-0.6
176
     1
 41
-30.0
176
     1
 62
     5
 63
     7
421
 16777215
176
     1
 74
     1
176
     1
 91
        4
176
     1
 64
     7
176
     1
 65
   257
176
     1
 75
     1
176
     1
175
     1
176
     1
 42
1.0
176
     1
 92
        8
176
     1
 66
     7
176
     1
 43
1.0
176
     1
 76
     1
176
     1
 77
     6
176
     1
 78
     2
176
     1
 67
     7
176
     1
 79
     5
176
     1
170
     0
176
     1
171
     0
176
     1
290
     0
176
     1
 93
        1
176
     1
 44
-50.0
176
     1
173
     0
176
     1
  0
VISUALSTYLE
  5
39
102
{ACAD_REACTORS
330
2A
102
}
330
2A
100
AcDbVisualStyle
  2
Facepattern
 70
    15
177
     2
291
     1
 71
     2
176
     1
 72
     2
176
     1
 73
     0
176
     1
 90
        0
176
     1
 40
-0.6
176
     1
 41
-30.0
176
     1
 62
     5
 63
     7
421
 16777215
176
     1
 74
     1
176
     1
 91
        4
176
     1
 64
     7
176
     1
 65
   257
176
     1
 75
     1
176
     1
175
     1
176
     1
 42
1.0
176
     1
 92
        8
176
     1
 66
     7
176
     1
 43
1.0
176
     1
 76
     1
176
     1
 77
     6
176
     1
 78
     2
176
     1
 67
     7
176
     1
 79
     5
176
     1
170
     0
176
     1
171
     0
176
     1
290
     0
176
     1
 93
        1
176
     1
 44
0.0
176
     1
173
     0
176
     1
  0
VISUALSTYLE
  5
2B
102
{ACAD_REACTORS
330
2A
102
}
330
2A
100
AcDbVisualStyle
  2
Flat
 70
     0
177
     2
291
     1
 71
     2
176
     1
 72
     1
176
     1
 73
     1
176
     1
 90
        2
176
     1
 40
-0.6
176
     1
 41
30.0
176
     1
 62
     5
 63
     7
421
 16777215
176
     1
 74
     0
176
     1
 91
        4
176
     1
 64
     7
176
     1
 65
   257
176
     1
 75
     1
176
     1
175
     1
176
     1
 42
1.0
176
     1
 92
        8
176
     1
 66
     7
176
     1
 43
1.0
176
     1
 76
     1
176
     1
 77
     6
176
     1
 78
     2
176
     1
 67
     7
176
     1
 79
     5
176
     1
170
     0
176
     1
171
     0
176
     1
290
     0
176
     1
 93
       13
176
     1
 44
0.0
176
     1
173
     0
176
     1
  0
VISUALSTYLE
  5
2C
102
{ACAD_REACTORS
330
2A
102
}
330
2A
100
AcDbVisualStyle
  2
FlatWithEdges
 70
     1
177
     2
291
     1
 71
     2
176
     1
 72
     1
176
     1
 73
     1
176
     1
 90
        2
176
     1
 40
-0.6
176
     1
 41
30.0
176
     1
 62
     5
 63
     7
421
 16777215
176
     1
 74
     1
176
     1
 91
        4
176
     1
 64
     7
176
     1
 65
   257
176
     1
 75
     1
176
     1
175
     1
176
     1
 42
1.0
176
     1
 92
        0
176
     1
 66
   257
176
     1
 43
1.0
176
     1
 76
     1
176
     1
 77
     6
176
     1
 78
     2
176
     1
 67
     7
176
     1
 79
     5
176
     1
170
     0
176
     1
171
     0
176
     1
290
     0
176
     1
 93
       13
176
     1
 44
0.0
176
     1
173
     0
176
     1
  0
VISUALSTYLE
  5
2D
102
{ACAD_REACTORS
330
2A
102
}
330
2A
100
AcDbVisualStyle
  2
Gouraud
 70
     2
177
     2
291
     1
 71
     2
176
     1
 72
     2
176
     1
 73
     1
176
     1
 90
        2
176
     1
 40
-0.6
176
     1
 41
30.0
176
     1
 62
     5
 63
     7
421
 16777215
176
     1
 74
     0
176
     1
 91
        4
176
     1
 64
     7
176
     1
 65
   257
176
     1
 75
     1
176
     1
175
     1
176
     1
 42
1.0
176
     1
 92
        0
176
     1
 66
     7
176
     1
 43
1.0
176
     1
 76
     1
176
     1
 77
     6
176
     1
 78
     2
176
     1
 67
     7
176
     1
 79
     5
176
     1
170
     0
176
     1
171
     0
176
     1
290
     0
176
     1
 93
       13
176
     1
 44
0.0
176
     1
173
     0
176
     1
  0
VISUALSTYLE
  5
2E
102
{ACAD_REACTORS
330
2A
102
}
330
2A
100
AcDbVisualStyle
  2
GouraudWithEdges
 70
     3
177
     2
291
     1
 71
     2
176
     1
 72
     2
176
     1
 73
     1
176
     1
 90
        2
176
     1
 40
-0.6
176
     1
 41
30.0
176
     1
 62
     5
 63
     7
421
 16777215
176
     1
 74
     1
176
     1
 91
        4
176
     1
 64
     7
176
     1
 65
   257
176
     1
 75
     1
176
     1
175
     1
176
     1
 42
1.0
176
     1
 92
        0
176
     1
 66
   257
176
     1
 43
1.0
176
     1
 76
     1
176
     1
 77
     6
176
     1
 78
     2
176
     1
 67
     7
176
     1
 79
     5
176
     1
170
     0
176
     1
171
     0
176
     1
290
     0
176
     1
 93
       13
176
     1
 44
0.0
176
     1
173
     0
176
     1
  0
VISUALSTYLE
  5
38
102
{ACAD_REACTORS
330
2A
102
}
330
2A
100
AcDbVisualStyle
  2
Linepattern
 70
    14
177
     2
291
     1
 71
     2
176
     1
 72
     2
176
     1
 73
     0
176
     1
 90
        0
176
     1
 40
-0.6
176
     1
 41
-30.0
176
     1
 62
     5
 63
     7
421
 16777215
176
     1
 74
     1
176
     1
 91
        4
176
     1
 64
     7
176
     1
 65
   257
176
     1
 75
     7
176
     1
175
     7
176
     1
 42
1.0
176
     1
 92
        8
176
     1
 66
     7
176
     1
 43
1.0
176
     1
 76
     1
176
     1
 77
     6
176
     1
 78
     2
176
     1
 67
     7
176
     1
 79
     5
176
     1
170
     0
176
     1
171
     0
176
     1
290
     0
176
     1
 93
        1
176
     1
 44
0.0
176
     1
173
     0
176
     1
  0
VISUALSTYLE
  5
33
102
{ACAD_REACTORS
330
2A
102
}
330
2A
100
AcDbVisualStyle
  2
Realistic
 70
     8
177
     2
291
     0
 71
     2
176
     1
 72
     2
176
     1
 73
     0
176
     1
 90
        0
176
     1
 40
-0.6
176
     1
 41
-30.0
176
     1
 62
     5
 63
     7
421
 16777215
176
     1
 74
     1
176
     1
 91
        0
176
     1
 64
     7
176
     1
 65
   257
176
     1
 75
     1
176
     1
175
     1
176
     1
 42
1.0
176
     1
 92
        8
176
     1
 66
     8
424
  7895160
176
     1
 43
1.0
176
     1
 76
     1
176
     1
 77
     6
176
     1
 78
     2
176
     1
 67
     7
176
     1
 79
     5
176
     1
170
     0
176
     1
171
     0
176
     1
290
     0
176
     1
 93
       13
176
     1
 44
0.0
176
     1
173
     0
176
     1
  0
VISUALSTYLE
  5
37
102
{ACAD_REACTORS
330
2A
102
}
330
2A
100
AcDbVisualStyle
  2
Thicken
 70
    13
177
     2
291
     1
 71
     2
176
     1
 72
     2
176
     1
 73
     0
176
     1
 90
        0
176
     1
 40
-0.6
176
     1
 41
-30.0
176
     1
 62
     5
 63
     7
421
 16777215
176
     1
 74
     1
176
     1
 91
        4
176
     1
 64
     7
176
     1
 65
   257
176
     1
 75
     1
176
     1
175
     1
176
     1
 42
1.0
176
     1
 92
       12
176
     1
 66
     7
176
     1
 43
1.0
176
     1
 76
     1
176
     1
 77
     6
176
     1
 78
     2
176
     1
 67
     7
176
     1
 79
     5
176
     1
170
     0
176
     1
171
     0
176
     1
290
     0
176
     1
 93
        1
176
     1
 44
0.0
176
     1
173
     0
176
     1
  0
ENDSEC
  0
EOF
